Oops, an error
Loading. Please wait.

El Espíritu Del Bosque Tab

version 2
version 2

Whole song

Interactive

55 views 3 this week
no commentswrite comment
1 2 3 4 5
3 more votes to show rating
add to favorites
launch autoscroll
font size
0
reset
how to read this tab
guitar tuner
×
Best way to learn
"El Espíritu Del Bosque"
Autoscroll
slow
fast
+/-
esc
set tempo
stop
Espero q les guste, en especial a Irene, q sabe lo q la quiero
Ahí va

Estrofa:

e|-----------------|---------------
B|----5-8--7-5-----|---------------
G|-4-----------7-4-|-4-4---4-5-7-4-
D|-----------------|-----7---------
A|-----------------|---------------
E|-----------------|---------------

e|-----------------|---------------
B|-----------------|---------------
G|-4-5-----5-4-----|-4-5-4---------
D|-----7-7-----5-2-|-------7-5-2---
A|-----------------|---------------
E|-----------------|---------------

e|-----------------|---------------
B|----5-8--7-5-----|---------------
G|-4-----------7-4-|-4-4---4-5-7-4-
D|-----------------|-----7---------
A|-----------------|---------------
E|-----------------|---------------

e|-----------------|---------------
B|-----------------|---------------
G|-4-5-----5-4-----|-4-5-4---------
D|-----7-7-----5-2-|-------7-5-4---
A|-----------------|---------------
E|-----------------|---------------


Estribillo:

e|-----------------|---------------|---------------
B|-5-5-5--7--8-----|---------------|---------------
G|-------------7---|-5-5-5-7-9-4---|-4-------4-----
D|-----------------|---------------|---7-5-7-------
A|-----------------|---------------|---------------
E|-----------------|---------------|---------------

e|----------------------|---------------
B|-5-5-5-7-8-10--8------|---------------
G|-----------------7-7--|-4-9-7-4-4-5---
D|----------------------|-------------9-
A|----------------------|---------------
E|----------------------|---------------

e|-----------------|---------------|---------------
B|-5-5-5--7--8-----|---------------|---------------
G|-------------7---|-5-5-5-7-9-4---|-4-------4-----
D|-----------------|---------------|---7-5-7-------
A|-----------------|---------------|---------------
E|-----------------|---------------|---------------

e|----------------------|---------------
B|-5-5-5-7-8-10--8------|---5-5-5-7-8-7-
G|-----------------7-7--|-4-------------
D|----------------------|---------------
A|----------------------|---------------
E|----------------------|---------------
Suggest correction
Give kudos to tab author, rate the tab!
1 2 3 4 5
comments
print report bad tab
guest
You may want to rate the tab now too:
select rating
Wanna post a correction for this tab? Suggest correction