Oops, an error
Loading. Please wait.

Levántate Señor Bass Tab

224 views 3 this week
no commentswrite comment
1 2 3 4 5
3 more votes to show rating
add to favorites
launch autoscroll
font size
0
reset
guitar tuner
×
Best way to learn
"Levántate Señor"
Autoscroll
slow
fast
+/-
esc
set tempo
stop
           Este es el solo del bajo espero les sea de bendicion.
               *********CRISTO ES REY^^^^^^^


  E---5-5-3-5-----------------------------------7-55
  A-----------3-7--7-------------------------7-5----
  D---------------5--5--7---7-7-5-7-------7-5-------
  G-----------------------5---------5-7-5----------=


  B--5-------------------5-------2-5-5-----
  E---5---55-3-5--5---55---5--55----3--5/3-
  A-----3-------3-----------3--------------
  D----------------------------------------
  G----------------------------------------

   cristo...Leon.......................
 E--5-3---5-3

Dios les bendiga saludos y bendiciones algun comentario o preguntas
slapface777@
saludos a todo la iglesia LUZ ADMIRABLE EN WINSTON-SALEM NC.
Suggest correction
Give kudos to tab author, rate the tab!
1 2 3 4 5
comments
print report bad tab
guest
You may want to rate the tab now too:
select rating
Wanna post a correction for this tab? Suggest correction