Oops, an error
Loading. Please wait.

Todo Es Para Él Bass

54 views 3 this week
no commentswrite comment
1 2 3 4 5
3 more votes to show rating
add to favorites
launch autoscroll
font size
0
reset
guitar tuner
×
Best way to learn
"Todo Es Para él"
Autoscroll
slow
fast
+/-
esc
set tempo
stop
Intro (x 4):                       Entrada a estrofa
G---------------------------------|---------|
D---------------------------------|---------|
A-7-7-7-------0-------------------|7-7-7-7-7|
E-------7-8-8---8-10-10-8-10-8-10-|---------|

Toda mi vida es para EL...
G-----------------------------------------------------|
D-----------------------------------------------------|
A-7-7-7-----7---7-7-----7----3-3-3-----3---3-3------3-|
E-------7-9---------7-9------------3-5----------3-5---|

Mi canción devoción y mis fuerzas...
G-----------------------------------------------|
D-----------------------------------------------|
A-3-5-5-5-5-5-5-5-5-5-5-5-5-5-5--3-3-3-3-3-3----|
E--------------------------------------------(3)|

Se repite intro(x2)
G---------------------------------|---------|
D---------------------------------|---------|
A-7-7-7-------0-------------------|7-7-7-7-7|
E-------7-8-8---8-10-10-8-10-8-10-|---------|


Toda mi vida es para EL...
G-----------------------------------------------------|
D-----------------------------------------------------|
A-7-7-7-----7---7-7-----7----3-3-3-----3---3-3------3-|
E-------7-9---------7-9------------3-5----------3-5---|

Mi canción devoción y mis fuerzas...(parte antes del coro)
G---------------------------------------------|-----|
D---------------------------------------------|-----|
A-3-5-5-5-5-5-5-5-5-5-5-5-5-5-5--3-3-3-3-3-3--|-7-5-|
E--------------------------------------------3|-----|

Canto para El, danzo para El y grito que soy libre solo en El...
G-------------------------------------------------------------------|
D-------------------------------------------------------------------|
A------------------3333333333333333-777777777777777--333333333333333|
E-3333333333333333--------------------------------------------------|

Se repite todo lo anterior hasta antes del puenten que va mas o menos así
(x1)
G---------------------------------------|
D---------------------------------------|
A-7-7-7--7-7-7--7-7-7-------------------|Tiene algunas pausas
E---------------------8-8-8-10-10-7-----|

G----------------| Hasta la tercera vez se repite un poco mas rapido
D----------------| y se queda en G
A-7-------7------|
E---7-3-5---7-3-5|

Canto para El, danzo para El y grito que soy libre solo en El...
G-------------------------------------------------------------------|
D-------------------------------------------------------------------|
A------------------3333333333333333-777777777777777--333333333333333|
E-3333333333333333--------------------------------------------------|

Final(x 4):
G---------------------------------|
D---------------------------------|
A-7-7-7-------0-------------------|
E-------7-8-8---8-10-10-8-10-8-10-|
Suggest correction
Give kudos to tab author, rate the tab!
1 2 3 4 5
comments
print report bad tab
guest
You may want to rate the tab now too:
select rating
Wanna post a correction for this tab? Suggest correction