Oops, an error
Loading. Please wait.

Levántate Señor Tab

version 1
version 1

Whole song

585 views 1 this week
no commentswrite comment
1 2 3 4 5
2 more votes to show rating
add to favorites
launch autoscroll
font size
0
reset
how to read this tab
guitar tuner
×
Best way to learn
"Levántate Señor"
Autoscroll
slow
fast
+/-
esc
set tempo
stop
la introduccion de la guitarra eléctrica durante los tambores es:

1:-------------------------------------
2:----8-10---10---13------5/10--8-----
3:---9---------------------------------

1:----------5h7h8---8------12---5/10--8
2:--------------------------------------
3:--5/9--7------------------------------

1:----------
2:--5/10--8-
3:----------

se rasgean las dos cuerdas
para darle un sonido de
flamenco que acompañe la bateria:

1:--12---13--12------13--12---13--12------13
2:--10---10--10------10--10---10--10------10

esto se continua hasta la parte de la trompetas


Las trompetas en la guitarra son:

1:------------------------------------------
2:---5-6-7-6---7/8-8-7---7-7-6-7-8-7-8-----
3:------------------------------------------
Suggest correction
Give kudos to tab author, rate the tab!
1 2 3 4 5
comments
print report bad tab
guest
You may want to rate the tab now too:
select rating
Wanna post a correction for this tab? Suggest correction