Oops, an error
Loading. Please wait.

Diseño Rolas Tab

version 2
version 2

Whole song

53 views 1 this week
no commentswrite comment
1 2 3 4 5
3 more votes to show rating
add to favorites
launch autoscroll
font size
0
reset
how to read this tab
guitar tuner
×
Best way to learn
"Diseño Rolas"
Autoscroll
slow
fast
+/-
esc
set tempo
stop
Bueno. Seria bueno decir que esta es mi primer trabajo
aqui en el Atame. Me pase un buen rato esperando a que
pusieran esta rola y como nadie la ponia pues decidi
ponerla yo. Asi que ahi les va. Esta rola esta bien
facil.

La cancion esta en 4/4 y la guitarra lleva distorcion.
Empiesa la bateria por cuatro tiempos. y luego entras.

e---------5-------------
B---6---6---6---6-------
G-----7-------7---------
D-----------------------
A-----------------------
E-----------------------

Esto se repite por ocho barras.
Cuando empiezas las notas son bien cortitas y poco a poco
les das su tiempo, haciendolas mas largas. Luego viene
la bateria y rompes en esto.

e--------5------------------5----
B------6---6---6----------6---6--
G----7-------7----------7--------
D--7-----------------------------
A--------------------------------
E--------------------------------

Esta parte tambien se toca por otras ocho barras.

     Dm              Dm
e-----5--------------5-5-5--------
B-----6--------------6-6-6--------
G-----7--------------7-7-7--------
D-----7--------------7-7-7--------
A-----5--------------5-5-5--------
E---------------------------------
    No es mi culpa ser    poetizo


Riff 1
e-------5---8-7-5---------5-------
B-----6---6-------------6---6---6-
G---7-----------------7-------7---
D---------------------------------
A---------------------------------
E---------------------------------

     Dm              Dm
e-----5--------------5-5-5--------
B-----6--------------6-6-6--------
G-----7--------------7-7-7--------
D-----7--------------7-7-7--------
A-----5--------------5-5-5--------
E---------------------------------
   Lo hago por placer     le aviso

Riff 1

        Gm              Gm
e-------3------------3-3-3--------
B-------3------------3-3-3--------
G-------3------------3-3-3--------
D-------5------------5-5-5--------
A-------5------------5-5-5--------
E---------------------------------
Soy un buenisimo pa' nada

       Gm              A
e-------5------------5-5-5--------
B-------5------------5-5-5--------
G-------6------------6-6-6--------
D-------7------------7-7-7--------
A-------7------------7-7-7--------
E---------------------------------
La sociedad me da viada

       Gm              A
e-----3--3-----------5-------
B-----3--3-----------5-------
G-----3--3-----------6-------
D-----5--5-----------7-------
A-----5--5-----------7-------
E----------------------------
Diseño Rolas..

       Gm              A
e-----3--3-----------5-------
B-----3--3-----------5-------
G-----3--3-----------6-------
D-----5--5-----------7-------
A-----5--5-----------7-------
E----------------------------
Diseño rolas

*Tocas el incio de nuevo por tres barras y luego sigues

Dm
Si hay que obedecer

Riff 1
No aguanto

Dm                  Riff 1
Me dicen que hacer, me largo.

Gm                           Gm Gm
Y si de a tiro no hago nada.

A                   A A
Agarro una Guitarra
Gm Gm A

       Diseño Rolas

Gm Gm A
       Diseño Rolas.


*Aqui entras en un solo.

Gm Gm A
       Diseño Rolas

Gm Gm A
       Diseño Rolas.


Dm
En la aburricion

Riff 1
Oh My God

Dm
Le Hice una cancion

Riff 1
A mi IPaq

Gm                   A
Luego no digo nada y le invento una tonada

Gm Gm A
        Diseño Rolas

Gm Gm A
        Diseño Rolas

Dm                     Riff 1
Siempre hay que tener estilacho

Dm                    Riff 1
No hay que alucinar.. tan gacho

Gm
Si tuerzo a una persona

A
Poniendo unas de Arjona

Gm Gm A
       Si señoronas...

Gm Gm A
       Diseño Rolas


Para que les suene mejor pueden escuchar el almbum y checar
donde quedan los arreglos y lo demas. Dudas o sugerencias
pueden mandarlas a mi correo.
Suggest correction
Give kudos to tab author, rate the tab!
1 2 3 4 5
comments
print report bad tab
guest
You may want to rate the tab now too:
select rating
Wanna post a correction for this tab? Suggest correction