Oops, an error
Loading. Please wait.

Diseño Rolas Tab

version 3
version 3

Whole song

28 views 1 this week
no commentswrite comment
1 2 3 4 5
3 more votes to show rating
add to favorites
launch autoscroll
font size
0
reset
how to read this tab
guitar tuner
Autoscroll
slow
fast
+/-
esc
set tempo
stop
Help us to improve Ultimate-Guitar.com Take our survey!
×
Aki sta una de las nuevas canciones de MOLOTOV.
  pm........
|------------|
|---------10-| REPITELO
|-10-7-10----| VARIAS VECES Y LE VAS KITANDO
|------------| EL PALM MUTE CADA VEZ Q LO REPITAS
|------------|
|------------|

AKI STA LO SIGUIENTE
(intro parte 2)
|---------------------------------------|
|---------10-----------------10---------|
|-10-7-10----10-7-10----7-10----10------| x4
|---------------------------------------|
|---------------------------------------|
|---------------------------------------|

EL BAJO TOKA STO
|----------|
|----------|
|-5--5-----|
|------5-5-|

VERSO(x2)
No es ningun........iso (kien sabe q diga)
      D5
|--------------|--------------------------------------|
|--------------|------10----13-11-10-------10---------|
|-7---7-7--7-7-|-7-10----10-----------7-10----10-7-10-|
|-7---7-7--7-7-|--------------------------------------|
|-5---5-5--5-5-|--------------------------------------|
|--------------|--------------------------------------|

CORO

Soy un buenisimo pa nada.......la sociedad me da mi ada
  G5     G5 G5  G5 G5    A5     A5 A5  A5 A5
|---------------------------------------------|
|---------------------------------------------|
|-12-----12-12--12-12----14-----14-14--14-14--|
|-12-----12-12--12-12----14-----14-14--14-14--|
|-10-----10-10--10-10----12-----12-12--12-12--|
|---------------------------------------------|

................DISEÑO ROLAs
  G5   G5  A5
|-------------|
|-------------|
|-------------|
|-5-X--5-5--7-|  X2
|-5-X--5-5--7-|
|-3-X--3-3--5-|

INTERMEDIO
ste s el intro del intermedio
|---------------8-9-10-|
|-10-9-10-11-12--------|
|----------------------|
|----------------------|
|----------------------|
|----------------------|

sigue el (intro parte 2)pero con otro efecto en el pedal
y luego sigue sto
|--------------------------------------------------|
|--------------------------------------------------|
|-12-12-12-12-12-12-12-12--14-14-14-14-14-14-14-14-|
|--------------------------------------------------|
|--------------------------------------------------|
|--------------------------------------------------|

luego sigue el coro y en ste coro agregas la parte de arriba

y luego sigue el final (q s = al intro del intermedio)
nomas q cuando tokas la nota final agregas D5
 D5
|---|
|---|
|-7-|
|-7-|
|-5-|
|---|


AMATEUR--

Intro
|-------------------------|
|-------------------------|
|-------------------------|
|-------5-----------------| LO REPITES y luego va
|---5-----7\3--7\5--5/7---|
|-7---7-------------------|

CORO:
|----------------------------|
|----------------------------|
|---------------5------------|
|-------5--2----5----7--9--2-| lo repites y la 2da
|---5------2----3----7--9--2-| vez q lo repitas entra
|-7---7----0---------5--7--0-| otra guitarra tokando

 2da guitarra q entra (en la ultima vez agregas el 2do cuadro)
|-------------------------| |-----|
|-------------------------| |-----|
|-------------------------| |-----|
|-----10-----7------------| |-----|
|-777-----77----77-10-7-9-| |-5/7-|
|-------------------------| |-----|

VERSO:
el verso la 1era parte lo tok el bajo como el intro
y luego entra la guitarra tokando el intro

el solo q lleva la cancion es muy facil
|-10-12b-10----10-----12b--10-----|
|-----------12----12-(12)-----12--|
|---------------------------------|
|---------------------------------|
|---------------------------------|
|---------------------------------|


PERRO NEGRO GRANJERO
bueno solo tengo los acordes xq todavia no sako el solo
primero los acordes son tokados normales y luego cuando
entra la bateria se tokan con 5as

A-C-D----
A5-C5-D5-
la variacion q tiene en acordes va
A5-C5-A5-C5-D5

MARCIANO

intro
|---------------------12-----------|
|-14--14--14--14--14-----12--12/13-|
|---13------13------13-----11------|
|----------------------------------|
|----------------------------------|
|----------------------------------|

el verso solo tokas A5 con un efecto raro en el pedal

y luego el coro va

Me convierto en marciano   Uho Oh   Oh
|----------------------------------|  |---|
|----------------------------------|  |---|
|----------------9----------9------|  |-6-|
|-7-------9------9----------9---9--|  |-6-|
|-7-------9------7----------7---9--|  |-4-|
|-5-------7---------------------7--|  |---|


SOLO:
|---9-9-9-7-12-9/7---9-9-9-7-12-12-12-9---9-9-9-7-12-9/7---9-9-9-7-12-9-17-9-|
|--9----------------9--------------------9----------------9------------------|
|----------------------------------------------------------------------------|
|----------------------------------------------------------------------------|
|----------------------------------------------------------------------------|
|----------------------------------------------------------------------------|


|---9-9-9-7-12-9/7----9-9-9-7-12-12-12-9--16-14----16-14----16-14----------16-14----16-14-----------|
|-9-----------------9---------------------------14-------14-------14-14-14-------14-------14-14-14\-|
|---------------------------------------------------------------------------------------------------|
|---------------------------------------------------------------------------------------------------|
|---------------------------------------------------------------------------------------------------|
|---------------------------------------------------------------------------------------------------|

OUTRO
|---------------------------------------------|
|-14--14-----14--12-----13--13-13-13--13-12---|
|---13---13----13---11----14--------14-----11-|
|---------------------------------------------|
|---------------------------------------------|
|---------------------------------------------|

termina en:
|-------|
|-12/14-|
|-------|
|-------|
|-------|
|-------|


SPERO Q LES HAYAN GUSTADO Y TMB NO TENER MUCHOS ERRORES
YA Q STA S LA PRIMERA VEZ Q TRANSCRIBO CANCIONES Q YO MISMO SAKO
BUENO DUDAS Y/O COMENTARIOS A:
ROCH_GACH007@
Suggest correction
Give kudos to tab author, rate the tab!
1 2 3 4 5
comments
print report bad tab
guest
You may want to rate the tab now too:
select rating
Wanna post a correction for this tab? Suggest correction