Oops, an error
Loading. Please wait.

Kill Bill 2 - Malagueña Tab

version 2
version 2

Whole song

397 views 1 this week
no commentswrite comment
1 2 3 4 5
3 more votes to show rating
add to favorites
launch autoscroll
font size
0
reset
how to read this tab
guitar tuner
Autoscroll
slow
fast
+/-
esc
set tempo
stop
Help us to improve Ultimate-Guitar.com Take our survey!
×
Esta canción es la que suena durante los créditos finales de la película
Kill Bill 2, y creo que es la que mejor suena (y la más sencilla) de las
que están colgadas aquí. Espero que les guste tanto como a mí...


E|----2---2-5-----2---2-5-----2---2-5---3-2-3--      |||
B|--0---0-------0---0-------0---0--------------      |||
G|---------------------------------------------      |||
D|---------------------------------------------      |||
A|---------------------------------------------      |||
E|---------------------------------------------      |||
                                                     |||
E|--0-3-0-3-7---0-3-0-3-7---8-7-5-3-3--2-0-2---      |||
B|---------------------------------------------      |||  I
G|---------------------------------------------      |||
D|---------------------------------------------      |||  N
A|---------------------------------------------      |||
E|---------------------------------------------      |||  T
                                                     |||
E|--2-5-2-5-8---2-5-2-5-8---10-8-7-5-8--7-5-7--      |||  R
B|---------------------------------------------      |||
G|---------------------------------------------      |||  O
D|---------------------------------------------      |||
A|---------------------------------------------      |||
E|---------------------------------------------      |||
                                                     |||
E|--7--8--10-8-7-5-8-7-5-3-7-5-3-2-5--3-2------      |||
B|----------------------------------------4----      |||
G|---------------------------------------------      |||
D|---------------------------------------------      |||
A|---------------------------------------------      |||
E|---------------------------------------------      |||

E|--7--8--7--5--3--2--0--      / E|-----------------------
B|-----------------------     /  B|-----------------------
G|-----------------------    /   G|--4--5--4--2--0--------
D|-----------------------   /    D|-----------------4--2--
A|-----------------------  /     A|-----------------------
E|----------------------- /      E|-----------------------
       PUNTEO 1                            PUNTEO 2

(INTRO)
(PUNTEO 1)

[ch]Em[/ch]

[ch]Em[/ch]
Qué bonitos ojos tienes
                    [ch]Am[/ch]
debajo de esas dos cejas
                    [ch]D[/ch]
debajo de esas dos cejas
                  [ch]B7[/ch]
qué bonitos ojos tienes

[ch]Em[/ch]
Ellos me quieren mirar
                   [ch]Am[/ch]
pero si tú no los dejas
                   [ch]Am[/ch]
pero si tú no los dejas
                   [ch]B7[/ch]
ni siquiera parpadear

  |                     [ch]Em[/ch]
  |      Malagueña salerosa
  |                            [ch]D[/ch]
E |      besar tus labios quisiera
S |                            [ch]G[/ch]
T |      besar tus labios quisiera
R |                     [ch]B7[/ch]
I |      malagueña salerosa
B |                          [ch]Em[/ch]
I |      y decirte, niña hermosa,
L |                                        [ch]D[/ch]
L |      eres liiiiiii[...]iiiinda y hechicera
O |                         [ch]G[/ch]
  |      eres linda y hechicera
  |               [ch]B7[/ch]
  |      como el candor de una rosa

(INTRO x 2)
(PUNTEO 2)

[ch]Em[/ch]

[ch]Em[/ch]
Si por pobre me desprecias
                 [ch]Am[/ch]
yo te concedo razón
                 [ch]D[/ch]
yo te concedo razón
                     [ch]B7[/ch]
si por pobre me desprecias

[ch]Em[/ch]
Yo no te ofrezco riquezas
                   [ch]Am[/ch]
te ofrezco mi corazón
                   [ch]D[/ch]
te ofrezco mi corazón
                   [ch]B7[/ch]
a cambio de mi pobreza

ESTRIBILLO

     [ch]B7[/ch]           [ch]Em[/ch]
y decirte niña hermosa

[ch]Em[/ch]
Suggest correction
Give kudos to tab author, rate the tab!
1 2 3 4 5
comments
print report bad tab
guest
You may want to rate the tab now too:
select rating
Wanna post a correction for this tab? Suggest correction