Oops, an error
Loading. Please wait.

Apareces Tú Tab

39 views 1 this week
no commentswrite comment
1 2 3 4 5
3 more votes to show rating
add to favorites
launch autoscroll
font size
0
reset
how to read this tab
guitar tuner
Autoscroll
slow
fast
+/-
esc
set tempo
stop
Help us to improve Ultimate-Guitar.com Take our survey!
×
esta cancion està a medio tono,
las demas tabs estan medio tono abajo,
escuchenla bien veran que si suena

         Intro

    G#                         C#

   e|--------------3--4--4--4--3-----
   B|-4--4--4----4-------------------
   G|---1--1--1--------1--1--1--1----      X 2
   D|--------------------------------
   A|--------------------------------
   E|--------------------------------


G#        C#                     G#

e--------3-4-4-4--4-3-4-4-4-3-----------
B-4-4-4-4-----------------------4-4-4-4--
G--1-1-1----1-1-1------1-1-1-1---1-1-1-1-
D---------------------------------------
A---------------------------------------
E---------------------------------------


G#          C#                   D#  G#

e--------3-4-4-4--4-3-4-4-4-4--3-3-3--4/3-
B-4-4-4-4-----------------------4-4-4-----
G--1-1-1----1-1-1------1-1-1-1------------
D-----------------------------------------
A-----------------------------------------
E-----------------------------------------


G#                      C#      D#                   G#
Me he prometido pedirme perdón, me he confesado con mi corazón,

e--------3-4-4-4-4--3-3-3--4/3-------
B-4-4-4-4------------4-4-4--------4-4-4-4--
G--1-1-1----1-1-1-1----------------1-1-1-1-
D---------------------------------------
A---------------------------------------
E---------------------------------------


G#                    C#         D#                      G#
me he enamorado de todo mi amor, me permití decirle al miedo adiós.

e--------3-4-4-4-4--3-3-3--4/3-------
B-4-4-4-4------------4-4-4--------4-4-4-4--
G--1-1-1----1-1-1-1----------------1-1-1-1-
D---------------------------------------
A---------------------------------------
E---------------------------------------


Fm             Cm         C#                      G#            D#
Y de repente apareces tú mientras me hablas hago que estoy dormida,

e---3-4-4-4-4--3-3-3--4-3-4-4-4-4-4-4--3--4-3-4
B-4-------------4-4-4-------------------4------
G------5-5-5-5-------------1-1-1-1-1-1---------5
D---------------------------------------
A---------------------------------------
E---------------------------------------


Fm              Cm        C#                    Fm          D#
te mentiría si negara hoy que desde entonces sólo sueño contigo.

e-4-4-4---3-3-3--4-3-4-4-4-4-4-4-3--
B----------4-4-4-------------------------
G--5-5-5--------------1-1-1-1-1----------
D---------------------------------------
A---------------------------------------
E---------------------------------------


G#                              Fm
Tú entiendes mis silencios,sólo tú
                            C#
conoces mis secretos,sólo tú
                            D#
comprendes cada gesto, sólo tú.

   1|---------------11---     -------9-8h9--8---
   2|----9---8--9---------    ---9--------------
   3|--8---8------8------  x7 -----8------------
   4|--------------------     ------------------
   5|--------------------     ------------------


G#                C#         D#                    G#
Me ha sonreído el espejo hoy,me he decidido a levantar la voz,

e--------3-4-4-4-4--3-3-3--4/3-------
B-4-4-4-4------------4-4-4--------4-4-4-4--
G--1-1-1----1-1-1-1----------------1-1-1-1-
D---------------------------------------
A---------------------------------------
E---------------------------------------

G#                     C#          D#                  G#
me he despedí de mis fantasmas hoy,y me he gustado tal y como soy.

e--------3-4-4-4-4--3-3-3--4/3-------
B-4-4-4-4------------4-4-4--------4-4-4-4--
G--1-1-1----1-1-1-1----------------1-1-1-1-
D---------------------------------------
A---------------------------------------
E---------------------------------------


Fm             Cm         C#                      G#            D#
Y de repente apareces tú mientras me hablas hago que estoy dormida,

e---3-4-4-4-4--3-3-3--4-3-4-4-4-4-4-4--3--4-3-4
B-4-------------4-4-4-------------------4------
G------5-5-5-5-------------1-1-1-1-1-1---------5
D---------------------------------------
A---------------------------------------
E---------------------------------------


Fm              Cm        C#                    Fm          D#
te mentiría si negara hoy que desde entonces sólo sueño contigo.

e-4-4-4---3-3-3--4-3-4-4-4-4-4-4-3-3-3-3-3-3--
B----------4-4-4------------------4-4-4-4-4-4-
G--5-5-5--------------1-1-1-1-1---------------
D---------------------------------------------
A---------------------------------------------
E---------------------------------------------


G#                              Fm
Tú entiendes mis silencios,sólo tú
                            C#
conoces mis secretos,sólo tú
                            D#
comprendes cada gesto, sólo tú.

   1|-------------------11---          ----------9-8h9--8----
   2|-----9---8---9---------           ---9----------------------
   3|--8----8--------8------    x 7    ------8-------------------
   4|--------------------              --------------------------
   5|--------------------              --------------------------
   6|--------------------              -------------------------


EN ESTA PARTE PARA LOS ARREGLOS SE PUEDEN ARPEGIAR LAS NOTAS

C#                  G#
Y yo solo quiero entregarme, comprenderte y
 C#                     G#   1*
cuidarte, darte mi corazón.

C                   A#m           Fm
Quiero que llegues a ser mi alma y mi intención
                C#                      D#
, mi vida y mi pasión, mi historia de amor.

1*
   1|-----------------
   2|---4-2-1-----------
   3|---------5-3h5--------


F#                                D#m
Tú  entiendes mis silencios, sólo tú,
                               B
me subes hasta el cielo, sólo tú
                              C#
,eres mi alma y mi inspiración.

   1|---------------------9-----          ---------7-6h7-6----
   2|-----7---6---7----------             ---7------------
   3|---6---6-------6---------    x 7     ----6--------


F#          B                     (A#m)


e|------------------------------------------
B|--7---6-7-7-7-7-6-7-7-7-7-6-7-7--6-7-6----
G|-6---6------------------------------------

                                                                G#
e----------------------------------------------
B--7-7-7-7-6-7-7-7-76-7-7-7-7-6-9--9--9--------
G---------------------------------8--8--8-------

B                             (con distor) B      C#m           D F#

e|-----------------------------------------------------------------
B|----7-6-7-7-7-7-6-7-7-6-6-7--------------------------------------
G|------------------------------------------------------------------


esta canciòn va para mi flakita, a ella le encanta y por eso la saquè,
tkm mi cielo... te dedico esta canciòn mua!!!!!!
Suggest correction
Give kudos to tab author, rate the tab!
1 2 3 4 5
comments
print report bad tab
guest
You may want to rate the tab now too:
select rating
Wanna post a correction for this tab? Suggest correction