Oops, an error
Loading. Please wait.

Mañana De Otoño Chords

version 2
version 2

Whole song

34 views 1 this week
no commentswrite comment
1 2 3 4 5
3 more votes to show rating
add to favorites
×
Save as Personal and add changes to this tab that will be seen only by you. Learn more ›
×
You can save this tab as Personal to edit and correct it or add notes. All changes will be seen only by you. Learn more »
save as personal
new!
launch autoscroll
font size
0
reset
transpose
0
reset
display chords
guitar tuner
Autoscroll
slow
fast
+/-
esc
set tempo
stop
Strumming
There is no strumming pattern for this song yet. and get +5 IQ
Interprete: El Otro Yo 
Titulo: Mañana de otoño
Album: Abrecaminos
Transcripción: Marcelo Villar (Rio cuarto, Córdoba)

ACORDES:  C     032010   
          Am    002210        
          F     133211          
          Em    022000    

h= hammer (pisar)
/= slide  (deslizar)


INTRODUCCIÓN: (no es exacta, pero es algo así) 

1|--5-3-0---------5-3-0---------5-3-5-5/7-5-3---------------
2|--------3-0-0h3-------3-0-0h3-----------------------------
3|----------------------------------------------------------
4|----------------------------------------------------------
5|----------------------------------------------------------
6|----------------------------------------------------------

1|--5-3-5-3-------5-3-5-5/7-5-3---5-3-5-3-------5-3-5-5/7---
2|----------3-3/5-------------------------3-3h5-------------
3|----------------------------------------------------------
4|----------------------------------------------------------
5|----------------------------------------------------------
6|----------------------------------------------------------

C Am C Am 

C   Am      C  Am 
Mañana de otoño, 
C   Am      C  Am
mañana de otoño, otoño
C   Am      C  Am
Los pajaros cantan 
         C        Am      C          Am
las campanas resuenan por todo el lugar

Montañas de rocio, 
montañas de rocio, rocio
el bolso está lleno de escarcha 
y mis planes de hoy se mojan, se mojan.

F   Em   F  Em        F    
Es hora     de desayunar, 
    Em   F  Em        C 
es hora de desayunar.
    Am      C  Am
Montañas de sueños, 
C   Am      C  Am
montañas de sueños y sueños.


C   Am      C  Am
Mi pueblo está lleno,
C   Am      C  Am
mi pueblo está lleno de sueños.
F       Em           F  Em        F 
No me llama la atención 
        Em        C 
No me llama la atención

C   Am      C  Am
Mañana de otoño, 
C   Am      C  Am   
mañana de otoño, otoño
C   Am           C    Am
Mi pueblo está lleno,
C    Am          C       Am 
mi pueblo está lleno de sueños.
F       Em           F  
No me llama la atención 
        Em           F
No me llama la atención
        Em           F
No me llama la atención 
        Em           C
No me llama la atención

Cualquier duda, consulta o sugerencia: marcelovillar@
Suggest correction
Give kudos to tab author, rate the tab!
1 2 3 4 5
comments
print report bad tab
guest
Wanna post a correction for this tab? Suggest correction