Oops, an error
Loading. Please wait.

Mañana De Otoño Chords

version 3
version 3

Whole song

8 views 1 this week
no commentswrite comment
1 2 3 4 5
3 more votes to show rating
add to favorites
×
Save as Personal and add changes to this tab that will be seen only by you. Learn more ›
×
You can save this tab as Personal to edit and correct it or add notes. All changes will be seen only by you. Learn more »
save as personal
new!
launch autoscroll
font size
0
reset
transpose
0
reset
display chords
guitar tuner
Autoscroll
slow
fast
+/-
esc
set tempo
stop
Strumming
There is no strumming pattern for this song yet. and get +5 IQ
INTRO:

e-7-5--------------------7-5-------------------
B-----7-5-7-5----------------7-5-7-5-----------
G-------------6--5h6-6---------------6--5h6-6--
D----------------------------------------------
A----------------------------------------------
E----------------------------------------------

e-7-5-7-5--------5--7-5-7--7/9-7-5-----7-5-7-5--------5--7-5-7--7/9--
B----------5-5h7-------------------7------------5-5h7----------------
G--------------------------------------------------------------------
D--------------------------------------------------------------------
A--------------------------------------------------------------------
E--------------------------------------------------------------------

[C - Am] X2

(Toda la canción sobre [C - Am] excepto que se indique lo contrario)

Mañana de otoño
Mañana de otoño, otoño
Los pajaros cantan
las campanas resuenan
por todo el lugar

Montañas de rocío
Montañas de rocío, rocío
y los planes de hoy
se mojan, se mojan

F  Em   F Em       F
Es hora   de desayunar
   Em   F Em       C
Es hora   de desayunar

Mañana de otoño
Mañana de otoño, otoño
en la feria la señora
vende, compra, mira la hora
para regresar a cocinar


(Montañas de sueño
Montañas de sueño y sueños)
mi pueblo esta lleno
mi pueblo esta lleno de sueños

F     Em           F           Em           F 
No me llama la atencion, no me llama la atencion
F     Em           F           Em           C 
No me llama la atencion, no me llama la atencion

Mañana de otoño
Mañana de otoño, otoño
mi pueblo esta lleno
mi pueblo esta lleno de sueños

F     Em           F           Em           F 
No me llama la atencion, no me llama la atencion
F     Em           F           Em           C 
No me llama la atencion, no me llama la atencion

   C     Am    F     Em    
e-|--0--|--0--|--1--|--0--|
B-|--1--|--1--|--1--|--0--|
G-|--0--|--2--|--2--|--0--|
D-|--2--|--2--|--3--|--2--|
A-|--3--|--0--|--3--|--2--|
E-|-----|-----|--1--|--0--|

Por ultimo, las anotaciones de las tablaturas:

-|-------|-------|
-|--5h6--|--7/9--|
-|-------|-------|
    (1)     (2)   


(1)= Hold: Hacer sonar nota siguiente sin volver a tocar la cuerda
           (En el ejemplo: Hacer sonar la cuerda en el 5º Casillero
            y luego ,con el dedo ya apoyado, soltar para que suene
            el siguiente casillero, osea, el 6º)
(2)= Slide: Tocar la nota y arrastrar el dedo hasta llegar a la siguiente
            (En el ejemplo: Hacer sonar la cuerda en el 7º Casillero
            y arrastrarse hasta el 9º)

Eso es todo, para comentarios, pedidos, puteadas, etc. mandenmen un mail 
a neotokio3@

AGUANTE EL OTRO YO!!!!
LA CUMBIA ES UNA MIERDA!!!!
Suggest correction
Give kudos to tab author, rate the tab!
1 2 3 4 5
comments
print report bad tab
guest
Wanna post a correction for this tab? Suggest correction