Oops, an error
Loading. Please wait.

Mi Refugio Tab

version 1
version 1

Whole song

76 views 1 this week
no commentswrite comment
1 2 3 4 5
3 more votes to show rating
add to favorites
launch autoscroll
font size
0
reset
how to read this tab
guitar tuner
Autoscroll
slow
fast
+/-
esc
set tempo
stop
Help us to improve Ultimate-Guitar.com Take our survey!
×
MODIFICACION A LA TRANSCRIPCION DE
Samir López (smrlpez@
**********************************************************************

Intro:
e|------------------------------------|
B|--------4-3----------------4-3--6---|
G|------5-----5-3-5--------5----------|x6
D|--3h5----------------3h5------------|
A|------------------------------------|
E|------------------------------------|
h= hammer-on

Esto hace la primera guitarra hasta donde dice:
"Tu me lavantas me sostienes.."

Verso 1:
Esto lo hacen el bajo y la acústica
Cm
Aunque la tierra y los mares se estremezcan
 Cm
Aunque los vientos y las olas se levanten
Eb/G   Ab
Mi corazón permanece en ti confiado
Eb/G   Ab
Pues siempre permaneces a mi lado
(La guitarra toca el G)

Aqui entran las 2 guitarras y la acústica
Verso 2:
 Cm
Tu me levantas me sostienes me ayudas
 Cm
Siento tus fuerzas hoy corriendo por mis venas
Eb/G   Ab
No temeré lo que pueda hacerme daño
Eb/G   Ab
Pues siempre tú permaneces a mi lado

Coro:
 Eb       Bb   Cm         Ab
Tú mi Refugio, Tú mi Fortaleza
 Cm  Ab    Eb  Bb  Cm     Ab   Eb    Bb
Cantaré y bailaré, yo me alegraré en ti

 Eb       Bb   Cm         Ab
Tú mi Refugio, Tú mi Fortaleza
 Cm  Ab    Eb  Bb  Cm     Ab   Eb    Bb
Cantaré y bailaré, yo me alegraré en ti


En ?Cantaré y bailaré?,la electrica hace esto:
e|--------------------------------------10-11-10----|
B|--13p--------13p--------13p--------13----------13-|
G|------h12-12-----h12-12-----h12-12----------------|

e|--------------------------------------|
B|--13p--------13p--------13p--------13-|
G|------h12-12-----h12-12-----h12-12----|

Después del primer par de coros hace esto:
e|--15-15-15------------------------------------16-16-|
B|------------16-16-16-16----------------15-15--------|x5
G|--------------------------15-15-15-15---------------|

e|--15-15-15--------|
B|------------16-16-|
G|------------------|

Verso 2:

e|--15-15-15------------------------------------16-16-|
B|------------16-16-16-16----------------15-15--------|x4
G|--------------------------15-15-15-15---------------|

Cuando solo queda la electrica hace así:

e|-----------------------------------------10-11-10----|
B|-----13p--------13p--------13p--------13----------13-|
G|---------h12-12-----h12-12-----h12-12----------------|

e|-------------------------------|
B|-----13p--------13p--------13v-|
G|---------h12-12-----h12-12-----|

Hay una parte donde la acústica toca:

e|---------------------------------------|
B|---------------------------------------|
G|----8---8-------7---7-------8---8------|
D|------8---8-------8---8-------8---8----|
A|--6------------------------------------|
E|--------------6-----------8------------|


final:
e|---------------------------|
B|---------------------------|
G|---3h5-5-3-3h5---3-3h5-3---|x3veces
D|---------------------------|
A|---------------------------|
E|---------------------------|

y termina con:
e|-------------|
B|-------------|
G|---5-5-3-5---|
D|---x-x-x-x---|
A|---3-3-1-3---|
E|-------------|


Diay!!, disculpen por el enredo y por hacerla tan larga, pero quería
que quedara para que la saquen bien, solo falta sacar lo del
principio del coro pero es algo difícil y cuando lo tenga lo subo
porque hace falta, que Dios me los bendiga y los cuide bastante...
Saludos :) Emanuel Rodríguez
           -Cartago -Costa Rica
Suggest correction
Give kudos to tab author, rate the tab!
1 2 3 4 5
comments
print report bad tab
guest
You may want to rate the tab now too:
select rating
Wanna post a correction for this tab? Suggest correction