Oops, an error
Loading. Please wait.

El Bastón Del Diablo Tab

version 4
version 4

Whole song

Interactive

62 views 3 this week
no commentswrite comment
1 2 3 4 5
3 more votes to show rating
add to favorites
launch autoscroll
font size
0
reset
how to read this tab
guitar tuner
×
Best way to learn
"El Bastón Del Diablo"
Autoscroll
slow
fast
+/-
esc
set tempo
stop
Requinto del intro
(Se repite 2 veces)

E-------------------7---------------------------------------
B--7--9-7-5-7--9-10---10-9-5--7-9-10-9-7-10-9-7-9--10-9-7-9-
G-----------------------------------------------------------
D-----------------------------------------------------------
A-----------------------------------------------------------
E-----------------------------------------------------------

F#m                            E
Bajo la luz de un callejón se escucha la voz de un anciano
    D                                     C#m
Contando la historia de un hombre que luchó por su libertad
F#m                                    E
Con su voz ronca y humilde contó la historia de un viejo señor
D                             C#m
Que dominaba a los hombres sentado en su viejo sillón


RIFF 1 X8 (1:03)

E-------------------7---------------------
B--7---7-9-10--9-10----10-9-7-10-9-7------
G----9-------------------------------9----
D-----------------------------------------
A-----------------------------------------
E-----------------------------------------

Acompañamiento del RIFF 1
2 veces (la 1a vez pausado)

E-------------------------------------------------
B-------------------------------------------------
G----------------7xxx--4xx--6xx-------------------
D----4xxx--2xxx--7xxx--4xx--6xx-------------------
A----4xxx--2xxx--5xxx--2xx--4xx-------------------
E----2xxx--0xxx-----------------------------------

VERSO 1 (X2)

E--------------------------------------------------
B--------------------------------------------------
G--------------7----6------------------------------
D----4----2----7----6------------------------------
A----4----2----5----4------------------------------
E----2----0----------------------------------------

F#m                              E
Con un bastón en su mano el dictador proclama su ley
D                            C#m
Pero un día un hombre se reveló contra su poder
F#m                           E
Dominado por el miedo el dictador a su familia mató
D                   C#m
Poseído por el odio el darle muerte juró
CORO 1 (X2)

E------------------------------------------------
B------------------------------------------------
G--------7xxx--4xxx--2xx--6xx--------------------
D--4xxx--7xxx--4xxx--2xx--6xx--------------------
A--4xxx--5xxx--2xxx--0xx--4xx--------------------
E--2xxx------------------------------------------

F#m                                      D
Donde están aquellos que sufren donde están??
B#m                                          C#
Sumidos en el miedo que infunde el dolor, dejados de la mano de dios
F#m                                      D
Donde están aquellos que sufren donde están??
B#m                                                         C#
Inmersos en un mundo de muerte y maldad intentan huir del poder
                F#m
De un viejo señor

RIFF 1 (X4)

RIFF 2 (2:24) (X4)

E-----------------------------------7~~-----------
B--7---7-9-10-7-9-10-7-9-10-7-9-10----------------
G----9--------------------------------------------
D-------------------------------------------------
A-------------------------------------------------
E-------------------------------------------------

1er acompañamiento del solo de guitarra (2:36)
2 veces

E-------------------------------------------------
B-------------------------------------------------
G----------------7xxx--4xx--6xx-------------------
D----4xxx--2xxx--7xxx--4xx--6xx-------------------
A----4xxx--2xxx--5xxx--2xx--4xx-------------------
E----2xxx--0xxx-----------------------------------

2o acompañamiento del solo de guitarra (2:58) (X2)

E-----------------------------------
B-----------------------------------
G--7--9--11-------------------------
D--7--9--11--11-12-11---11-12-11----
A--5--7--9------------9-------------
E-----------------------------------

E-----------------------------------
B-----------------------------------
G--7--9--6--------------------------
D--7--9--6--6-7-6----6-7-6----------
A--5--7--4--------4-----------------
E-----------------------------------

Pequeño requinto después del solo (3:23)

E------------------------------
B------------------------------
G--7~~-6~~---------------------
D-----------7~~-4~~------------
A------------------------------
E------------------------------

VERSO 2 (igual que el 1, pero con el RIFF 1
Por detrás con palm muting)

F#m                             E
La noche se va aferrando Y la historia llega a su fin
D                           C#m
El joven se ha vengado Y el viejo ha tenido que huir
F#m                             E
Ya no quedan palabras Y su relato el anciano acabó
D                            C#m
Sólo queda una pregunta Y es la que yo me hago hoy

CORO 2 (igual al 1, pero este va 3 veces)


 F#m                        E
Donde están Aquellos que sufren
 D                                 C#m
Donde están Sumidos en el miedo que infunde el dolor
 F#m                        E
Dejados de la mano de Dios Donde están
 D                  C#m
Aquellos que sufren Donde están
 F#m                                       D
Inmersos en un mundo de muerte y maldad Intentan huir del poder
 B#m                   C#
Donde están Aquellos que sufren
F#m                                 D
Donde están Sumidos en el miedo que infunde el dolor
 B#m               C#
Dejados de la mano de Dios

RIFF 3 (4:28)
(X2)

E--------------------7--------------------
B--7---9---10---9---------10---9----------
G----6---6----6---6-----6----6---6--9--6--
D-----------------------------------------
A-----------------------------------------
E-----------------------------------------

E--------------------7--------------------
B--7---9---10---9---------10---9----------
G----6---6----6---6-----6----6---6--9--6--
D-----------------------------------------
A-----------------------------------------
E-----------------------------------------

E--------------------7--------------------
B--7---9---10---9---------10---9----------
G----6---6----6---6-----6----6---6--9--6--
D-----------------------------------------
A-----------------------------------------
E-----------------------------------------

E--------------------9---7----------------
B--7---9---10---9------------10---9-------
G----6---6----6---6----6---6----6---6-----
D-----------------------------------------
A-----------------------------------------
E-----------------------------------------

RIFF 2 (X4)


Os espero haberlos ayudado y mi correo e darkilled@ (dudas)
Suggest correction
Give kudos to tab author, rate the tab!
1 2 3 4 5
comments
print report bad tab
guest
You may want to rate the tab now too:
select rating
Wanna post a correction for this tab? Suggest correction