Oops, an error
Loading. Please wait.

En Tu Pelo Tab

71 views 3 this week
no commentswrite comment
1 2 3 4 5
3 more votes to show rating
add to favorites
launch autoscroll
font size
0
reset
how to read this tab
guitar tuner
×
Best way to learn
"En Tu Pelo"
Autoscroll
slow
fast
+/-
esc
set tempo
stop
Bueno, esto es relativamente facil de tocar, es la parte de la introduccion que se 
repite en la mitad de la cancion de esta fantastica cancion, he intentado sacar los 
acordes pero no lo he logrado aun asi que le ruego a quien los tenga que me los mande 
o los publique por favor!!!

Esta es la parte de las trompetas
e|--------------------5------------------------------------------------------------|
b|--5--7--8-8-8-8-8-8---8--7-7-7-7-7-7---8-7--5-5-5-5-5-5--7-5--4-4-4--------------|
g|---------------------------------------------------------------------5--4--------|
d|---------------------------------------------------------------------------------|
a|---------------------------------------------------------------------------------|
E|---------------------------------------------------------------------------------|

y esta es la parte de los violines
e|---------------------------------------------------------------------------------|
b|---------------------------------------------------------------------------------|
g|---------------------------------------------------------------------------------|
d|--------------------------7------------------------------------------------------|
a|--7--9--10-10-10-10-10-10---10--9-9-9-9-9-9--10-9--7-7-7-7-7-7--9--7--6-6-6------|
E|----------------------------------------------------------------------------8-7--|

esto son trompetas otra vez
e|----------------------------------|----------------------------------------------|
b|----5--7--5-7-8-7--5-7-8-7--5-4---|--7--5--4-------------------------------------|
g|-4--------------------------------|-----------5--4-------------------------------|
d|----------------------------------|----------------------------------------------|
a|----------------------------------|----------------------------------------------|
E|----------------------------------|----------------------------------------------|
  2 veces					  no estoy muy seguro de este final
Suggest correction
Give kudos to tab author, rate the tab!
1 2 3 4 5
comments
print report bad tab
guest
You may want to rate the tab now too:
select rating
Wanna post a correction for this tab? Suggest correction