Oops, an error
Loading. Please wait.

Esclavo Y Amo Tab

version 1
version 1

Whole song

55 views 3 this week
no commentswrite comment
1 2 3 4 5
3 more votes to show rating
add to favorites
launch autoscroll
font size
0
reset
how to read this tab
guitar tuner
×
Best way to learn
"Esclavo Y Amo"
Autoscroll
slow
fast
+/-
esc
set tempo
stop
LAm              
e--------------------8-------------
B----10---10-9-10-12---10----------
G--9-------------------------------

                               SOL
e------------------8---------------
B----10---10-10-12---10--10/12--8--
G--9-------------------------------

                       FA
e------------7---------------------
B----8-8--10---8--8/10--6----------
G--7-------------------------------

                       MI
e------------7---------------------
B----6-6--8----6--6/8--5-----------
G--5-------------------------------


SE REPITE DOS VECES. Y EL ACOMPAÑAMIENTO ES EN
RITMO DE BOLERO... CON MUCHO CARIÑO PARA MI PECHOSITA
Suggest correction
Give kudos to tab author, rate the tab!
1 2 3 4 5
comments
print report bad tab
guest
You may want to rate the tab now too:
select rating
Wanna post a correction for this tab? Suggest correction