Oops, an error
Loading. Please wait.

Tan Joven Y Tan Viejo Tab

version 3
version 3

Whole song

46 views 1 this week
no commentswrite comment
1 2 3 4 5
3 more votes to show rating
add to favorites
launch autoscroll
font size
0
reset
how to read this tab
guitar tuner
×
Best way to learn
"Tan Joven Y Tan Viejo"
Autoscroll
slow
fast
+/-
esc
set tempo
stop
Intro

                   G             C          C/B  Am    C
e---3-5-7--8-8--8--7---3-5-7-8-7-7-3---3-5-7-8-7-7--5----------------
B-----------------------------------------------------------1-0-1-0--
G--4--5-7-9--9-9--7----4-5-7-9-7-7-4---3-5-7-9-7-7--5------0---0-----
D-------------------------------------------------------0h2----------
A------------------------------------------------------3-------------
E--------------------------------------------------------------------
          G
e----------------3-------
B------------Oh1--1-0----
G------------------------
D----------0-------------
A-3h5/7------------------
E---------3--------------

                    G                     C
Lo primero que quise, fue marcharme bien lejos,
        C/B     Am  D/F#            G
en el álbum de cromo, de la resignación.
Pegábamos los niños, que odiaban los espejos,
guantes de retajaibo, calles de Nueva York.

Apenas, vi que un ojo, me guiñaba la vida,
                         D              G
le pedí que a su antojo, dispusiera de mí.
         C9         G
Ella me dio las llaves, de la ciudad prohibida,
                    D/F#                G
yo todo lo que tengo, que es nada se lo di.

Y así crecí volando, y volé tan deprisa,
que hasta mi propia sombra, de vista me perdió.
Para borrar mis huellas, destrocé mi camisa
confundí con estrellas, las luces de neón.

Intro

Hice trampas al poker, defraudé a mis amigos,
sobre el banco de un parque, dormí como un pirou.
      C9
Por decir lo que pienso, sin pensar lo que digo,
más de un beso me dieron, y más de un bofetón.


Lo que sé del olvido, lo aprendí de la luna,
                   D/F#
lo que sé del pecado, lo tuve que buscar.
Como un ladrón debajo, de la falda de alguna,
                     D
de cuyo nombre ahora, no me quiero acordar.


Así que de momento, nada de adiós muchachos,
                           D
me duermo en los entierros, de mi generación,
cada noche me invento, todavía me emborracho,
                      D                   G
tan joven y tan viejo, like, a Rolling, Stone.

G  C  C/B  Am  D
(chiflado)
Suggest correction
Give kudos to tab author, rate the tab!
1 2 3 4 5
comments
print report bad tab
guest
You may want to rate the tab now too:
select rating
Wanna post a correction for this tab? Suggest correction