Oops, an error
Loading. Please wait.

Tan Joven Y Tan Viejo Tab

version 4
version 4

Whole song

73 views 1 this week
no commentswrite comment
1 2 3 4 5
2 more votes to show rating
add to favorites
launch autoscroll
font size
0
reset
how to read this tab
guitar tuner
Autoscroll
slow
fast
+/-
esc
set tempo
stop
Help us to improve Ultimate-Guitar.com Take our survey!
×
Nota: Las vueltas son más o menos iguales (se puede jugar un poco con
los adornos o metiendo o quitando alguna nota), por lo que sólo incluyo
una vuelta para verso y otra para estribillo (que varía un poco).


*** INTRO:

E |-----------0---------0--2--4----|--5--------5--5-----4-------0--2--4---|
B |--0--------0--------------------|--------------------------------------|
G |--------1------------1--2--4----|--6--------6--6-----4-------1--2--4---|
D |--------------------------------|--------------------------------------|
A |--------------------------------|--------------------------------------|
E |--0-----------------------------|--------------------------------------|


---4h-5-----4h-5-----4----------------0----------0----------0-----2-----4----|
--------------------------0------------------0-------------------------------|
---4--------4-------------------4---------------------------1-----2-----4----|
-----------------------------------------------------------------------------|
---------------------4-------------------------------------------------------|
-----------------------------------------------------------------------------|


----4h-5-----4h-5-----4-----------------2h-4h-2-----------------------------
----------------------------5-----------------------5-----------------5-----
----4--------4--------------------2-----------------------------------------
----------------------------------------------------------------------------
----------------------2-----------------------------------------------0-----
----------------------------------------------------------------------------


---------------------|-----------5--4--------0-----------0------||
-------------5-------|-----5-----------------------------0------||
-4-------------------|--------4-----------------------1---------||
-------2-------------|------------------------------------------||
---------------------|------------------------------------------||
---------------------|--------------0--------0------------------||

                                                       Lo primero que

*** VERSO:


   E

-0--------0-----------0-----------0----------------|
----0-----------0-----------0-----------0----------|
-------1-----------1-----------1-----------1-------|
---------------------------------------------------|
---------------------------------------------------|
-0-------------------------------------------------|

quise                       fue marcharme bien


   Asus2

--0--------2-----------0----------------------------|
-----0-----------0-----------0----------------------|
--------2-----------2-----------2-------------------|
----------------------------------------------------|
--0-------------------------------------------------|
--------------------------------------4-------------|

lejos;                     en el álbum de


   Fm7                     B7sus4

--------------------2-------------------------------|
-----------5-----------5-----------5-----------5----|
--------2--------2-----------2-----------2----------|
-----2--------------------------4-----------4-------|
--------------------------2-------------------------|
--2-------------------------------------------------|

cromos                           de la resigna-


   E                      B7sus4

--0--------0---------------------------------------|
-----0-----------0-----------------5---------------|
--------1-----------1-----------2--------2---------|
-----------------------------4--------------4------|
--------------------------2------------------------|
--0------------------------------------------------|

-ción                                pegábamos los


   E

-0--------0-----------2-----------0----------------|
----0-----------0-----------0-----------0----------|
-------1-----------1-----------1-----------1-------|
---------------------------------------------------|
---------------------------------------------------|
-0-------------------------------------------------|

niños                         que odiaban los es-

      (etc?)

-pejos
guantes de Rita Hayworth, calles de Nueva York.

Apenas vi que un ojo me guiñaba la vida
le pedí que a su antojo dispusiera de mí,
ella me dio las llaves de la ciudad prohibida
yo, todo lo que tengo, que es nada, se lo di.


*** ESTRIBILLO:

   B7sus4  (Nota: viene del verso)

---------------------------|
-----------5---------------|
--------2--------2---------|
-----4--------------4------|
--2------------------------|
---------------------------|

            Así crecí vo-


   E

-0--------0----------------------------------------|
----0-----------0-----4-----0-----2-----0----------|
-------1-----------1-----------1-----------1-------|
---------------------------------------------------|
---------------------------------------------------|
-0-------------------------------------------------|

-lando                            y volé tan de-


   Asus2

--0-------------------------------------------------|
-----0-----4-----0-----2-----0----------------------|
--------2-----------2-----------2-------------------|
----------------------------------------------------|
--0-------------------------------------------------|
--------------------------------------4-------------|

- prisa                     que hasta mi propia

   Fm7                     B7sus4

--------------------2-------------------------------|
-----------5-----------5-----------5-----------5----|
--------2--------2-----------2-----------2----------|
-----2--------------------------4-----------4-------|
--------------------------2-------------------------|
--2-------------------------------------------------|

sombra                           de vista me per-


   E                      B7sus4

--0--------0---------------------------------------|
-----0-----------0-----------------5---------------|
--------1-----------1-----------2--------2---------|
-----------------------------4--------------4------|
--------------------------2------------------------|
--0------------------------------------------------|

-dió,                              para borrar mis


   (etc?)

huellas destrocé mi camisa,
confundí con estrellas las luces de neón.

*** INTRO:


*** VERSO:

Hice trampas al póker, defraudé a mis amigos,
sobre el banco de un parque dormí como un lirón;
por decir lo que pienso sin pensar lo que digo
más de un beso me dieron (y más de un bofetón).

Lo que sé del olvido lo aprendí de la luna,
lo que sé del pecado lo tuve que buscar
como un ladrón debajo de la falda de alguna
de cuyo nombre ahora no me quiero acordar.

*** ESTRIBILLO

Así que, de momento, nada de adiós muchachos,
me duermo en los entierros de mi generación;
cada noche me invento, todavía me emborracho;
tan joven y tan viejo, like a rolling stone.

*** VERSO y finaliza en E maj.
Suggest correction
Give kudos to tab author, rate the tab!
1 2 3 4 5
comments
print report bad tab
guest
You may want to rate the tab now too:
select rating
Wanna post a correction for this tab? Suggest correction