Oops, an error
Loading. Please wait.

No Volveré Tab

version 1
version 1

Whole song

151 views 1 this week
no commentswrite comment
1 2 3 4 5
3 more votes to show rating
add to favorites
launch autoscroll
font size
0
reset
how to read this tab
guitar tuner
×
Best way to learn
"No Volveré"
Autoscroll
slow
fast
+/-
esc
set tempo
stop
E|-------------------------------------------|
B|-----3-3-2-3-3-5-7--3-3-7-7--7-8-8-7-5-10--|
G|-2-2---------------------------------------|
D|-------------------------------------------|
A|-------------------------------------------|
E|-------------------------------------------|

E|------------------------------------------------------|
B|12-10-8-8-10-12-10-8-7--8-7-5-10-8-10-8-10-8-7-5-3----|
G|------------------------------------------------------|
D|------------------------------------------------------|
A|------------------------------------------------------|
E|------------------------------------------------------|

E|--------------------------------------------------------------------|
B|12-8-10-12-8-8-12-12-10-12-10-8-7-10--5-5-7-7-7-8-8-7-5-10-12-10-8-7|
G|--------------------------------------------------------------------|
D|--------------------------------------------------------------------|
A|--------------------------------------------------------------------|
E|--------------------------------------------------------------------|

E|-------------------------------------|
B|12-8-10-12-8-8-12-12-10-12-10-8-7-10-|
G|-------------------------------------|
D|-------------------------------------|
A|-------------------------------------|
E|-------------------------------------|

E|---------------------------------------------2-----|
B|-5-5-7-7-7-8-8-7-5-10-8-10-12-10-12-10-8-7-5-3-----|
G|---------------------------------------------2-----|
D|---------------------------------------------0-----|
A|---------------------------------------------0-----|
E|---------------------------------------------------|
Suggest correction
Give kudos to tab author, rate the tab!
1 2 3 4 5
comments
print report bad tab
guest
You may want to rate the tab now too:
select rating
Wanna post a correction for this tab? Suggest correction