Oops, an error
Loading. Please wait.

Amada Mia Tab

version 2
version 2

Whole song

92 views 1 this week
no commentswrite comment
1 2 3 4 5
2 more votes to show rating
add to favorites
launch autoscroll
font size
0
reset
how to read this tab
guitar tuner
Autoscroll
slow
fast
+/-
esc
set tempo
stop
Help us to improve Ultimate-Guitar.com Take our survey!
×
Nota: El intro es totalmente arpegiado y se toca con guitarra y teclado
al mismo tiempo, esta tablatura la adapte para tocarse con 2 guitarras
pero es casi lo mismo en caso de que quieran tocarla con el teclado.

Las tablaturas para cada una de las guitarras están colocadas en forma
paralela, esto para que no tengan ningún problema de coordinación al
momento de tocar, y sepan exactamente en donde entra cada guitarra, así
como la forma en que se van intercalando.

Por cuestiones de espacio no pude colocar todo el intro en el ancho de
la hoja, se que se sobreentiende pero no esta de más aclararlo: El tercer
grupo de líneas corresponden al final de la primera parte (o primer
guitarra) y el cuarto grupo de líneas corresponden al final de la segunda
parte (o segunda guitarra).

Las 2 primeras estrofas así como la 4 y la 5 son arpegiadas, para la
3 y la 6 cambia el ritmo a balada rock, si escuchan la canción en
un CD será más fácil.


Intro:


Guitarra 1:
E |----------------------------------------------------------------------
A |----------------------------------------------------------------------
D |-------------------------------------------5--------------------------
g |-5------------------------------9^10-9------5----------5^4-4----------
b |--6------------------------13----------------5-6----------------------
e |---3^5-5-------8-7-------12-------------------------------------------
Guitarra 2:
E |----------------------------------------------------------------------
A |--------------------------------------8-8-7---------------------------
D |----------------------------------------------------------------------
g |--------5---------------------------------------5-----------7---------
b |---------6-------------10------5^6-6-5-----------6-----------8--------
e |----------5^8-8---7^8^7------0--------------------3^5-5-------7^10-10-


Guitarra 1:
E |-3-----------------
A |----3--------------
D |-------2-----------
g |----------0-----0--
b |-------------1-----
e |-------------------
Guitarra 2:
E |-3------|----------
A |--3-----|----------
D |---2----|----------
g |----0---|----------
b |-----1--|----------
e |------0-|----------
           V

C                            G
Amada mía, después de tantos años,
                   F            C
después de tantas noches compartidas,
                   G    F            C
después de tantos sueños soñados cada día,
                G        C
te sigo amando tanto amada mía.

                                G
Tus ojos negros se clavan como siempre,
                 F             C
tu beso es una llama que aún me quema,
                  G    F             C
yo sigo siendo el árbol y tu la tierra mía,
                G           C
te sigo amando tanto amada mía.

       F                      G          C
Amada mía, después de tantas horas de camino
             F        G            C
tu sigues siendo playa, yo sigo siendo río,
        F                        G            C
y como siempre sigo aspirando el aire que respiras,
           F      G            C
me sigo enamorando en cada amanecer.

                           G
Amada mía, de risas y de llanto,
              F         C
compañera de tardes amarillas,
               G   F              C
luna de media noche y sol del medio día,
                   G            C
serás por siempre campo y yo semilla.

                        G
Amada mía, un día del otoño
               F            C
se vestirán de blanco mis cabellos,
                G   F               C
se quedarán dormidos tus besos en mis besos,
               G           C
y buscare tus manos para mecerlos.

       F                     G          C
Amada mía, después de tantos años a tu lado,
           F        G            C
yo sigo siendo brisa y tu montaña en llano
       F                      G         C
amada mía, después de tantos mares navegados
              F          G
tu sigues siendo orilla... y yo gaviota


E |----------------------------------------------
A |----------------------------------------------
D |----------------------------------------------
g |-5--------------------------------------------
b |--6-----------------------4^5-----5^6-5-------
e |---3^5-5-------8-7----------------------------


E |--------------------------------------3-----|-
A |---------------------------------------3----|-
D |------------------------------5---------2---|-
g |--------5-----------------------5--------0--|-
b |---------6------------10-8--------5-3-----1-|-
e |----------5^8-8---8^7----------------------0|-
                                               V
Suggest correction
Give kudos to tab author, rate the tab!
1 2 3 4 5
comments
print report bad tab
guest
You may want to rate the tab now too:
select rating
Wanna post a correction for this tab? Suggest correction