Oops, an error
Loading. Please wait.

Amada Mia Tab

version 1
version 1

Whole song

94 views 3 this week
no commentswrite comment
1 2 3 4 5
3 more votes to show rating
add to favorites
×
Save as Personal and add changes to this tab that will be seen only by you. Learn more ›
×
You can save this tab as Personal to edit and correct it or add notes. All changes will be seen only by you. Learn more »
save as personal
new!
launch autoscroll
font size
0
reset
how to read this tab
guitar tuner
Autoscroll
slow
fast
+/-
esc
set tempo
stop
Nota: C* es una variacion de C
      toda la cancion se toca arpegiada, excepto el estribillo.
      Dedicada a la mujer que mas amo... Nathaly

c  : 032010
c* : 032013
G  : 320033
F  : 133211


arpegios:

     C*
e----------------3-------------------
B-----------1-------1---1------------
G--------0----0-------0--------------
D------------------------------------
A------3-----------------------------
E------------------------------------

    G
e-------------3----------------------
B---------3-----3---3----------------
G-------0---0-----0------------------
D------------------------------------
A------------------------------------
E-----3------------------------------

    F
e------------1------------------------
B--------1-----1---1------------------
G------2---2-----2--------------------
D-------------------------------------
A----3--------------------------------
E-------------------------------------


-----------------------------------------

Intro:

e-----1--3--5----8--7-----12------------
B---1--------------------------13--12---
G---------------------------------------
D---------------------------------------
A---------------------------------------
E---------------------------------------

e---------------------------------------
B----1--3------1--0---------------------
G--3-------2----------------------------
D---------------------------------------
A---------------------------------------
E---------------------------------------
      C*
Amada mia
                  G
después de tantos años
                  F            C*
después de tantas noches compartidas
                  G
después de tantos sueños
F            C*
soñados cada día
               G
te sigo amando tanto
      C*
amada mia.

          C*
Tus ojos negros
               G
se clavan como siempre
               F
tu beso es una llama
           C*
que aún me quema
               G
yo sigo siendo árbol
F              C*
y tu la tierra mia
               G
te sigo amando tanto
   C*
amada mia.


Estribillo:

      F
Amada mia
                  G          C
después de tantas horas de camino
                 F     G
tu sigues siendo playa
          C
yo sigo siendo río.

       F
Y como siempre
                 G            C
sigo aspirando el aire que respiras
           F       G
me sigo enamorando
             C
en cada amanecer.


Amada mia
de risas y de llanto
compañera de tardes amarillas
luna de medianoche
y sol de mediodía
serás por siempre campo
y yo semilla.


Amada mia
un dia de otoño
se vestirán de blanco mis cabellos
se quedarán dormidos
tus besos en mis besos
y buscaré tus manos
para mecerlos.


Estribillo:

Amada mia
después de tantos años a tu lado
yo sigo siendo brisa
y tu montaña y llano.

Amada mia
después de tantos mares navegados
tu sigues siendo orilla
y yo gaviota.
Suggest correction
Give kudos to tab author, rate the tab!
1 2 3 4 5
comments
print report bad tab
guest
Wanna post a correction for this tab? Suggest correction