Oops, an error
Loading. Please wait.

Fíjate Bien Tab

version 2
version 2

Whole song

Interactive

54 views 1 this week
no commentswrite comment
1 2 3 4 5
3 more votes to show rating
add to favorites
launch autoscroll
font size
0
reset
how to read this tab
guitar tuner
×
Best way to learn
"Fíjate Bien"
Autoscroll
slow
fast
+/-
esc
set tempo
stop
                                  fijate bien


                                                                          juanes

 sacado por patricio Molina correciones o comentarios a alfindelsilencio@

E||--7----7----|------------2----------------|-----------------|
B||--7----7----|------------2----------------|--10p-7-----7----|
G||--7----7----|------------2----------------|---------9-------|
D||--9----9----|--2----4----4----------------|-----------------|
A||------------|-----------------------------|-----------------|
E||------------|-----------------------------|-----------------|


-------------------------|--------------------|--7--9----7--9----|
-------------------------|--------------------|--7--7----7--7----|
-------7h-9----7h---9h---|--11----------------|--7--7----7--7----|
--9----------------------|--------------------|--9--9----9--9----|
-------------------------|--------------------|------------------|
-------------------------|--------------------|------------------|


--7----------------|----------|------------------|---------------------|
--7----------------|----------|------------------|---------------------|
--7----------------|--7-7-7-7-|--7--9----9-11----|--7-9----9-11--------|
--9----------------|--7-7-7-7-|--5--7----7-9-----|--5-7----7-9---------|
-------------------|--9-9-9-9-|--5--7----7-9-----|--5-7----7-9---------|
-------------------|--7-7-7-7-|------------------|---------------------|


------------------|---------------------|-----------------|
------------------|---------------------|-----------------|
--7--9----9-11----|--7-9----9-11--------|--9--7--6--------|
--5--7----7-9-----|--5-7----7-9---------|--7--6--4--------|
--5--7----7-9-----|--5-7----7-9---------|--7--6--4--------|
------------------|---------------------|-----------------|


---------------------|-------------------|-------------------|--7--------|
---------------------|-------------------|-------------------|--7--------|
--9----7----6--------|--6--7----9--------|--6--7----9--------|--7--------|
--7/---6----4--------|--4--5----7--------|--4--5----7--------|--9--------|
--7----6----4--------|--4--5----7--------|--4--5----7--------|--9--------|
---------------------|-------------------|-------------------|--7--------|


----------|--5--------|--3--------|----------|--5--------|----------|
----------|--5--------|--3--------|----------|--5--------|----------|
----------|--6--------|--4--------|----------|--8--------|----------|
----------|--7--------|--5--------|----------|--9--------|----------|
----------|--7--------|--5--------|----------|--9--------|----------|
----------|--5--------|--3--------|----------|--5--------|----------|


------------------|---------------------|------------------|
------------------|---------------------|------------------|
--7--9----9-11----|--7-9----9-11--------|--7--9----9-11----|
--5--7----7-9-----|--5-7----7-9---------|--5--7----7-9-----|
--5--7----7-9-----|--5-7----7-9---------|--5--7----7-9-----|
------------------|---------------------|------------------|


---------------------|-----------------|---------------------|
---------------------|-----------------|---------------------|
--7-9----9-11--------|--9--7--6--------|--9----7----6--------|
--5-7----7-9---------|--7--6--4--------|--7/---6----4--------|
--5-7----7-9---------|--7--6--4--------|--7----6----4--------|
---------------------|-----------------|---------------------|


-------------------|-------------------|
-------------------|-------------------|
--6--7----9--------|--6--7----9--------|
--4--5----7--------|--4--5----7--------|
--4--5----7--------|--4--5----7--------|
-------------------|-------------------|


-------------------------------------------------|
-------------------------------------------------|
--0--2--------2----2/---3----3----3----3----5----|
-------------------------------------------------|
-------------------------------------------------|
-------------------------------------------------|


--------------------------------------------------------|-----------------|
--------------------------------------------------------|-----------------|
--5/-------7--------7--------5/-------7--------7--------|-----------------|
--------------------------------------------------------|--7--6--4--------|
--------------------------------------------------------|-----------------|
--------------------------------------------------------|-----------------|


-----------|-----------------|--5----3----2----|--10----9----7----|
--2--------|--------5--3--2--|-----------------|------------------|
-----3-----|-----3-----------|-----------------|------------------|
--------4--|--4--------------|-----------------|------------------|
-----------|-----------------|-----------------|------------------|
-----------|-----------------|-----------------|------------------|


------------------------|------------------------|----------------------|
--10----8----7----12----|--11----10----9----8----|--7h---8p---7---------|
------------------------|------------------------|-----------------9----|
------------------------|------------------------|----------------------|
------------------------|------------------------|----------------------|
------------------------|------------------------|----------------------|


-----------------------|-----------------------|-----------------|
-----------------------|--7----8----7----10----|--9----8----7----|
--7----4---------------|-----------------------|-----------------|
------------10----9----|-----------------------|-----------------|
-----------------------|-----------------------|-----------------|
-----------------------|-----------------------|-----------------|


----------------------|----------------------|----------------------|
-------7--------------|----------------------|----------------------|
--9b--------7----9----|--7----6----7----4----|--7----9----9b---7----|
----------------------|----------------------|----------------------|
----------------------|----------------------|----------------------|
----------------------|----------------------|----------------------|


----------------------|----------------------|----------------------|
----------------------|----------------------|----------------------|
--6----4--------------|----------------------|----------------------|
------------9----8----|--7-------------------|--4/---5----5----7----|
----------------------|-------7----5----4----|----------------------|
----------------------|----------------------|----------------------|


----------------------|-----------------------|------------7----12----|
----------------------|-----------------------|-------7---------------|
-----------------7----|--9----7----9----11----|--9--------------------|
--7----9----9---------|-----------------------|-----------------------|
----------------------|-----------------------|-----------------------|
----------------------|-----------------------|-----------------------|


--12----12----10----10----|--9----9----9----7----|----------------------|
--------------------------|----------------------|--9----8/---7/---8----|
--------------------------|----------------------|----------------------|
--------------------------|----------------------|----------------------|
--------------------------|----------------------|----------------------|
--------------------------|----------------------|----------------------|


-------7----7r---7b---|--12--10------12--10------|--12--10------12--10------||
-------7----7----7----|----------12----------12--|----------12----------12--||
--9----9b---9----9----|--------------------------|--------------------------||
----------------------|--------------------------|--------------------------||
----------------------|--------------------------|--------------------------||
----------------------|--------------------------|--------------------------||
Suggest correction
Give kudos to tab author, rate the tab!
1 2 3 4 5
comments
print report bad tab
guest
You may want to rate the tab now too:
select rating
Wanna post a correction for this tab? Suggest correction