Oops, an error
Loading. Please wait.

Fíjate Bien Tab

version 1
version 1

Whole song

Interactive

223 views 1 this week
no commentswrite comment
1 2 3 4 5
3 more votes to show rating
add to favorites
launch autoscroll
font size
0
reset
how to read this tab
guitar tuner
Autoscroll
slow
fast
+/-
esc
set tempo
stop
Help us to improve Ultimate-Guitar.com Take our survey!
×
Este es el solo acustico de la cancion fijate bien
este solo va por los acordes: /Bm/A/F#/ X 2 veces.
VA ASI:

e/-----------------------------------------------------------------/
b/---3-5--(5slide7)-7-7-7---7-7-7--7-7-7-7-------------------------/
g/-4---------------------------------------9--7-6-9-6-4-7-4-3-6-3--/
d/----------------------------------------------------------------4/
a/-----------------------------------------------------------------/
E/-----------------------------------------------------------------/


e/--------------------------------------------------------------------/
b/-2-2-3-5-3-2-3---10-9-7------15-14-12-10-12-10--7-7-7-8-7-5---7-5---/
g/--------------4---------9-11-------------------------------7-6---7-6/
d/--------------------------------------------------------------------/
a/--------------------------------------------------------------------/
E/--------------------------------------------------------------------/


e/--------------------5-4-3-2/
b/----------7-5-3------------/
g/-4-2-6-4-2-----6-4-2-------/
d/---------------------------/
a/---------------------------/
E/---------------------------/

Bueno date vida con una guitarra acustica haciendo este solo
o ponle a tu guitarra electrica simulacion de acustica. El solo final
de la cancion no lo  he sacado completo por eso no se los mando.
Suggest correction
Give kudos to tab author, rate the tab!
1 2 3 4 5
comments
print report bad tab
guest
You may want to rate the tab now too:
select rating
Wanna post a correction for this tab? Suggest correction