Oops, an error
Loading. Please wait.

Charly Se Fué Bass Tab

50 views 3 this week
no commentswrite comment
1 2 3 4 5
3 more votes to show rating
add to favorites
launch autoscroll
font size
0
reset
guitar tuner
Autoscroll
slow
fast
+/-
esc
set tempo
stop
Help us to improve Ultimate-Guitar.com Take our survey!
×
                     x2
G ----------------------|----------------------|
D --0--2-3--5-----------|--0------0------------|
A ------------0---------|----3------3----------|
E ----------------------|------0------000...---|
Se hizo a si mismo...    No pudo asimilar...

CHORUS:
G -------------------------------|
D -------------------------------|
A -0--2--3--5--8--5--8--5--0-----|
E ---------------------------0---|
Y se ollo una voz...

G -------------------------------------------------------------|
D -------------------------------------------------------------|
A -0--2--3--5--8--8-7-5--3/5-3-0-1---8-8-7-5--3/5-3-0---0------|
E ---------------------------------1------------------1---0----| 
Un atardecer...

G --------------------13-14-13h14p13------------------12-12/14-|
D --------------14-15----------------15-14-12------------------|
A -0--2--3--5---------------------------------15-14-15---------|
E -------------------------------------------------------------|

G ------------------------------------------------|
D ----------------0-2----2-2-2-2-0----------------|
A -00--000--0-2-3------------------3-2-0-0--------|
E ---------------------0--------------------------|
Sirvele un trago...

G --------------------------------------|
D --------------------------------------|
A --5-5-5---7-8-3---3-3--7-8------------|
E -----------------------------000...---|
Si como Moises, marcó...

CHORUS x1

G ------------------------------------------9--10--11--14--|
D ------------------------------7--9--12-------------------|
A ------------------5--7--8--9-----------------------------|
E ---0--3--5--6--7-----------------------------------------|


G ------------------------|
D ----2-3-----2-3---------|
A -5-------3------1--111--|
E ------------------------|
Durante el solo

G ----------------|-------------------------------|
D ----------------|-------------------------------|
A --3--5--6-------|-5--7--8--10--13--10--5--------|
E ----------------|------------------------5------|
Sonó su mejor...   

CHORUS:      
G -----------------------------|
D -----------------------------|
A -5--7--8--10--13--10--5------|
E ------------------------5----|
Y se ollo una voz...  
                                                         x2
G ------------------------------------------------------------------|
D ------------------------------------------------------------------|
A -5--7--8--10--13-13-13-12-10-8/10-8-5-6--13-13-12-10--8/10-5--5---|
E ---------------------------------------6--------------------6---5-|
Un atardecer...

Ha costado sudor y sangre sacarla, esparamos que la disfruteis...
Si tienes alguna duda, enviarla a atajari@
Saludos desde Sevilla
Suggest correction
Give kudos to tab author, rate the tab!
1 2 3 4 5
comments
print report bad tab
guest
You may want to rate the tab now too:
select rating
Wanna post a correction for this tab? Suggest correction