Oops, an error
Loading. Please wait.

Camaleón Tab

version 2
version 2

Whole song

51 views 1 this week
no commentswrite comment
1 2 3 4 5
3 more votes to show rating
add to favorites
launch autoscroll
font size
0
reset
how to read this tab
guitar tuner
Autoscroll
slow
fast
+/-
esc
set tempo
stop
Help us to improve Ultimate-Guitar.com Take our survey!
×
Riff A

   C#m                E                  A
||------------------|------------------|----0--0--0----|
||--5-5-5-5-5-5-5-5-|--5-5-5-5-5-5-5-5-|--2--2--2--2-2-|
||-6-6-6-6-6-6-6-6--|-4-4-4-4-4-4-4-4--|-2-2--2--2--2--|
||------------------|------------------|---------------|
||------------------|------------------|---------------|
||------------------|------------------|---------------|

1.,2.
  B
|----0--0--0----||
|--4--4--4--4-4-||
|-4-4--4--4--4--||
|---------------||
|---------------||
|---------------||

3.
G1 C#m
G2 (G#m)
 |----0--0-----------||
 |--4--4--4-4-4-4-4--||
 |-4-4--4--4-4-4-4-4-||
 |-------------------||
 |-------------------||
 |-------------------||

Riff B

 |-------------------------|---------------------
 |---s9----9----7----------|s9----9----7---------
 |----------------9----6---|--------------9----6-
 |-------------------------|---------------------

 |--------------------------|
 |---9-----7----------------|
 |------------9----6------6-|
 |---------------------9----|

 |-------------------------|---------------------|
 |---s9----9----7----------|s9----9----7---------|
 |----------------9----6---|--------------9----6-|
 |-------------------------|---------------------|

 --------------------------|
 ---9-----7----------------|
 ------------9----6-6-6-6--|
 --------------------------|


Intro:

Guitarra 1: Riff A

Guitarra 2: Riff B

F#m - B - G#m
F#m - B - G#m


E        C#m
 Camaleón

A            F#m           E
 Disfraz del odio y el amor

      C#m        A
 Se perdió,

A             F#m        B
 en la sonrisa artificial

               F#m
Que guarda la furia

     B
Verdad

             F#m
El tiempo ya nunca

   E - A - B
Es igual...

   E - A - B
es igual...


Solo:
F#m - B - G#m

 |-------------------------|---------------------|
 |---s9----9----7----------|s9----9----7---------|
 |----------------9----6---|--------------9----6-|
 |-------------------------|---------------------|

 --------------------------|
 ---9-----7----------------|
 ------------9----6------6-|  x2
 ---------------------9----|

F#m                B     G#m
Es que ya no puedo verte


F#m         B     G#m
Camaleón unicolor


F#m          B        G#m
Es mejor no detenerse


F#m           A
Sin temor de irnos hoy


E - C#m - F#m
Camaleón

E - C#m - F#m
Camaleón


B           F#m
Ahhh olvida la furia

|------------------------------------------|
|------------------------------------------|
|------------------------------------------|
|---6----4------4--------------------------|
|------------7-----7-----2----4----2----0--|
|------------------------------------------|
B            F#m
Verdad El tiempo ya nunca

|---------------------------------------------|
|---------------------------------------------|
|---------------------------------------------|
|---6----4------4-----------------------------|
|------------7-----7-----2----4----2----7----9|
|---------------------------------------------|

  E - A - B
Es igual...

   E - A - B
es igual...  (Ya nunca es)

   E - A - B
Es igual...

   E - A - B
es igual...


A  B
A - G#m - F#m - E - B


Final:

E B A B

E B A B
Uhhh, uhhhh
Uhhh, uhhhh.

Rasgeo final B.
Suggest correction
Give kudos to tab author, rate the tab!
1 2 3 4 5
comments
print report bad tab
guest
You may want to rate the tab now too:
select rating
Wanna post a correction for this tab? Suggest correction