Oops, an error
Loading. Please wait.

Corazón Delator Tab

version 1
version 1

Whole song

Interactive

578 views 1 this week
no commentswrite comment
1 2 3 4 5
3 more votes to show rating
add to favorites
launch autoscroll
font size
0
reset
how to read this tab
guitar tuner
×
Best way to learn
"Corazón Delator"
Autoscroll
slow
fast
+/-
esc
set tempo
stop
DE AHORA EN ADELANTE MIS TABLATURAS VAN PARA ALGUIEN MUY MUY HERMOSA
INTELIGENTE CARIÑOSA MEJOR DICHO...

A LOS QUE QUIERAN DARME LAS GRACIAS POR SUBIR ESTAS TABLATURAS NO ME DEN
LAS GRACIAS A MI,SINO A ELLA
a le hermosa "KATHERIN J GONZALEZ"
TE ADORO MI HERMOSA!
TIENES MI CORAZON DELATOR


para los solos usé una Parker Deluxe y Digitech GNX3
para los arpegios y notas usé una Paul Reed Smith Tiger
Y una Zoom modelo 96
Cabe destacar la Ayuda de mi hermano y de la prestada de las guitarras
Y del amplificador JC de Roland Gracias Totales a todos a Mecho a Juancho
Y a Soler....


INTRO

e----------------------------------------|
B---15--13--15-----13--15-17-19-20-19----|
G----------------------------------------|
D----------------------------------------|
A----------------------------------------|
E----------------------------------------|

1-------------------------------------------15-13-11---|
2------3---3-----3-------------3-----------------------|
3----4--4-------4-4-----------4-4----------------------|
4---4----4-----4---4-4-6-----4---4-4-------------------|
5--2----------2-------------2--------------------------|
6------------------------------------------------------|


Em   G9
        Un señuelo
1----------------------------|
2-------------11/9//68-----|
3----------------------------|
4----------------------------|
5----------------------------|
6----------------------------|

       Em     G9
     Hay algo oculto en cada sensación
1-----------------15-13-11-----------------|
2------------------------------------------|
3---------------------------11/9//68-----|
4------------------------------------------|
5------------------------------------------|
6------------------------------------------|

     Am     C9
        Ella parece sospechar
1----------------------------------------------15------|
2------3---3-----3-------------3---------15h13---------|
3----4--4-------4-4-----------4-4----------------------|
4---4----4-----4---4-4-6-----4---4-4-------------------|
5--2----------2-------------2--------------------------|
6------------------------------------------------------|

        A7     Cmaj7
     Parece descubrir en mí  (    )
1------------------------------11--15--|
2------3---3-----3------------12-------|
3----4--4-------4-4----------11--------|
4---4----4-----4---4-4-6---------------|
5--2----------2------------------------|
6--------------------------------------|

       Bm7
     Debilidad
1------11-----9---7---5--------------|
2-----12----10---8---6---------------|
3----11----9----7---5----------------|
4------------------------------------|
5------------------------------------|
6------------------------------------|
Estos rasgueos se hacen rápido y con efecto puente
flotación y un poco de flanger chorus


     Cmaj7       B7sus4-B7
        Los vestigios de una hoguera

1------------------------|
2----------8-------------|
3--------6---6-----------|
4------6-----------------|
5------------------------|
6------------------------|
     F#m   F    Em
     OH mi corazón se vuelve delator
     F#m   F
        Traicionándome
1-----------------15-13-11-----------------|
2------------------------------------------|
3------------------------------------------|
4------------------------------------------|
5------------------------------------------|
6------------------------------------------|


     Por descuido
1----------17~----------------------|
2----17/15--------------------------|
3-----------------------------------|
4-----------------------------------|
5-----------------------------------|
6-----------------------------------|

     Fui víctima de todo alguna vez
1-----------------15-13-11-----------------------|
2------------------------------------------------|
3--------------------------------------12-14-19b-|
4---------------------------------14-12----------|
5------------------------------------------------|
6------------------------------------------------|

     Ella lo puede percibir ya nada puede impedir en mi
1------------------------------------------------|---17--|---11-15-|
2---------------------14--------------------14---|-15----|--12-----|
3-------------------12--------------------12-----|-------|-11------|
4------------------------------------------------|-------|---------|
5------------------------------------------------|-------|---------|
6------------------------------------------------|-------|---------|
                                                  Tremolo|muy rápido

     Fragilidad
1-----4-4-4-4-----------------|
2----5-----5------------------|
3---4-------------------------|
4-----------------------------|
5-----------------------------|
6-----------------------------Rasgueo con efecto

     Es el curso de las cosas
1--------------11/12----------12bh13------|
2-----------------------------------------|
3-----------------------------------|
4-----------------------------------|
5-----------------------------------|
6-----------------------------------|


     OH mi corazón se vuelve delator
             D/C   A-G
     Se abren mis esposas...
1----5m---5m-------------------------------------|
2----5m---5m-------------------------------------|
3----7m---6m-------------------------------------|
4----7m---6m----------9~m--7~m-10~n--------------|
5----5m---5m-------------------------------------|
6----5m---5m-------------------------------------|

     Em     C
     Un suave látigo
1--------------------------------------------|
2--------------------------------------------|
3--------------------------------------------|
4--------9~m---7~m--10~n---------------------|
5--------9~m---8~m--10~n---------------------|
6--------------------------------------------|

     Em     C
     Una premonición
1--------------------------------------------|
2--------------------------------------------|
3--------------------------------------------|
4---------------------9~n--7~m---------------|
5---------------------9~n--8~m---------------|
6--------------------------------------------|

     Bm    Bb   F  D  C
     Dibujan llagas en las manos
1--------------------------------------------|
2--------------------------------------------|
3--------------------------------------------|
4--------9~m--7~m -10~n~m--------------------|
5--------9~m--8~m -10~n~m--------------------|
6--------------------------------------------|


     Un dulce palpito
1--------------------------------------------|
2--------------------------------------------|
3--------------------------------------------|
4--------9~m---7~m--10~n---------------------|
5--------9~m---8~m--10~n---------------------|
6--------------------------------------------|
1--------------------------------------------|

2--------------------------------------------|
3--------------------------------------------|
4--------9~m---7~m--10~n---------------------|
5--------9~m---8~m--10~n---------------------|
6--------------------------------------------|

     LA clave intima
1--------------------------------------------|
2--------------------------------------------|
3--------------------------------------------|
4--------7~n---10~m~-------------------------|
5--------7~n---10~m~-------------------------|
6--------------------------------------------|

     Se van cayendo de mis labios
1--------------------------------------------|
2--------------------------------------------|
3--------------------------------------------|
4--------9~m-////-10~n~m----------------|
5--------9~m-////-10~n~m----------------|
6--------------------------------------------|

1--------------------------------------------|
2--------------------------------------------|
3--------------------------------------------|
4--------12~m--10~m -9~n~m--8~n~m~~~~--------|
5--------11~m--9~m --9~n~m--8~n~m~~~~--------|
6--------------------------------------------|

Solo:
1-12~n---------9~m-|--12~n----------9~m-|-15-13-16-|
2--------12~n------|---------12~n-----------|----------|
3------------------|------------------------|----------|
4------------------|------------------------|----------|
5------------------|------------------------|----------|
6------------------|------------------------|----------|

|-------------------------------------------------------------------|
                                                                    |
1---------------------|--12-10-14---------------------------------| |
2--------------12-14--|------------14p16----10h12-10---~b10~------| |
3------12-13-14-------|-------------------------------------------| |
4-12-14---------------|-------------------------------------------| |
5---------------------|-------------------------------------------| |
6---------------------|-------------------------------------------| |
                                                                    |
                                                                    |
1-----------------------------------------------|                   |
2------3--------------3-------------------------|                   |
3-----4-4-4----4-----4-4-4----------------------|                   |
4----4---4---4------4---4-----------------------|                   |
5---2-------2------2----------------------------|                   |
6-----------------------------------------------|Arpegio            |
|                                                                   |
-------------------------------------------------------------------||
1------------------------12~---12-10-14---------|
2--------7~-----7~-----8------------------------|
3----7/9----7/9----8/10-------------------------|
4-----------------------------------------------|
5-----------------------------------------------|
6-----------------------------------------------|


     Un señuelo
1-----12hx10x---------------------|
2--10-----------------------------|
3---------------------------------|
4---------------------------------|
5---------------------------------|
6---------------------------------|


     Hay algo oculto en cada sensación
1------------12|------------------------------------------|
2-----------12-|-----------------14-13-12-----------------|
3--------------|-------------------------14-13-12---12/14-|
4--------------|-----------12-14------------------14------|
5--------------|------------------------------------------|
6--------------|------------------------------------------|

     Ella parece sospechar
1------------------------|----------------|
2------3---3-----3-------|----10h12-10----|
3----4--4-------4-4------|--10------------|
4---4----4-----4---4-4-6-|----------------|
5--2----------2----------|----------------|
6------------------------|----------------|

     Parece descubrir en mí
1------------------------------10---14----|
2-----------------------------11----------|
3------------12bh13h12~------10-----------|
4-----------------------------------------|
5-----------------------------------------|
6-----------------------------------------|


     Que aquel amor
1------11-----9---7---5--------------|
2-----12----10---8---6---------------|
3----11----9----7---5----------------|
4------------------------------------|
5------------------------------------|

     Es como un océano de fuego
1-------------------------------------|
2-----------------------------5-------|
3----------------------------4--------|
4---------------------------4---------|
5--------------------------5----------|
6-------------------------------------|

     OH mi corazón se vuelve delator
1--------------------------------------------------------------------|
2--------------------------------------------------------------------|
3--------------------------------------------------------------------|
4--------------------------------------8-8-8-------------------------|
5-------------------------------------6-----6------------------------|
6------------------------------------8-------8-7---------------------|


     La fiebre volverá de nuevo
1-------------------------------7n-4n-5m---------|
2-------------------------------7n-4n-5m---------|
3-------------------------------7n-5n-6m---------|
4-------------------------------9n-6n-7m---------|
5-------------------------------9n-6n-7m---------|
6-------------------------------7n-4n-5m---------|


     Un suave látigo...

1--------------------------------------------|
2--------------------------------------------|
3--------------------------------------------|
4--------9~m---7~m--10~n---------------------|
5--------9~m---8~m--10~n---------------------|
6--------------------------------------------|

Una Premonición
1--------------------------------------------|
2--------------------------------------------|
3--------------------------------------------|
4--------7~n---10~m~-------------------------|
5--------7~n---10~m~-------------------------|
6--------------------------------------------|

Dibujan llagas en las manos


     Un dulce palpito
1--------------------------------------------|
2--------------------------------------------|
3--------------------------------------------|
4--------9~m---7~m--10~n---------------------|
5--------9~m---8~m--10~n---------------------|
6--------------------------------------------|


LA clave intima

1--------------------------------------------|
2--------------------------------------------|
3--------------------------------------------|
4--------7~n---10~m~-------------------------|
5--------7~n---10~m~-------------------------|
6--------------------------------------------|

     Se van cayendo de mis labios...

1--------------------------------------------|
2--------------------------------------------|
3--------------------------------------------|
4--------9~m-////-10~n~m----------------|
5--------9~m-////-10~n~m----------------|
6--------------------------------------------|

1--------------------------------------------|
2--------------------------------------------|
3--------------------------------------------|
4--------12~m--10~m -9~n~m--8~n~m~~~~--------|
5--------11~m--9~m --9~n~m--8~n~m~~~~--------|
6--------------------------------------------|


     D   C     Em
     Como un mantra
1-------------12-n~-----------------|
2-----------8-----------------------|
3-----------------------------------|
4-----------------------------------|
5-----------------------------------|
6-----------------------------------|

     De mis labios
1-------------12~nm~p13-14-n~-------|
2-----------------------------------|
3-----------------------------------|
4-----------------------------------|
5-----------------------------------|
6-----------------------------------|

     De mis labios
1-------------14-n~-----------------|
2-----------------------------------|
3---------------------14h15h16mn~---|
4-----------------------------------|
5-----------------------------------|
6-----------------------------------|


Solo del Final:

Este solo va con distorsión simple y plus

1----------------------------------------------------------11~~----|
2--------------------------------------14------9~~11~~-13~~--------|
3-------------10~~~-6~~-7~~9~~11~~11/13----10~~--------------------|
4-11////m/3~-------------------------------------------------------|
5-11////m/3~-------------------------------------------------------|
6------------------------------------------------------------------|

1-------------------------------------------------------------------|
2------10~~12~~~13~~~~----10~~12~~~13~~~~---9~~11~~~12~~~~-13~15-17~|
3--11~~---------------11~~----------------10~~------------14~-------|
4-------------------------------------------------------------------|
5-------------------------------------------------------------------|
6-------------------------------------------------------------------|

1--------12~------15~m////----------|
2---10/12----13/15------------------|
3--------------------------10b~~----|
4-----------------------------------|
5-----------------------------------|
6-----------------------------------|


          D-C-Em
          D-C-Em
Efectos

m:Wah Abierto (sobre el talon)
m:h cerrado (sobre la punta del pie)
~Vibrato
/Slide

Cualquier duda me ecriben a andres194@
Suggest correction
Give kudos to tab author, rate the tab!
1 2 3 4 5
comments
print report bad tab
guest
You may want to rate the tab now too:
select rating
Wanna post a correction for this tab? Suggest correction