Oops, an error
Loading. Please wait.

Destrózame Tab

version 2
version 2

Whole song

Interactive

30 views 1 this week
no commentswrite comment
1 2 3 4 5
3 more votes to show rating
add to favorites
launch autoscroll
font size
0
reset
how to read this tab
guitar tuner
Autoscroll
slow
fast
+/-
esc
set tempo
stop
Help us to improve Ultimate-Guitar.com Take our survey!
×
AFINACION: DROP C

D---------------------------------
A-8/7-8/7-8/7-8/7-8/7-8/7-8/7-8/7- x3
F---------------------------------
C---------------------------------
G---------------------------------
C---------------------------------
En esta parte del intro tienes k
usar tus dos dedos y solo levantar el
k pisa el traste numero 8 creo k se llama
finger pick o algo así xD

D-------------------------------------
A-10-10-10-10-10-10-10-8-8-8-8-7-7-7-7
F------------------------------------- x5
C-------------------------------------
G-------------------------------------
C-------------------------------------

D------------------------------------------
A------------------------------------------
F------------------------------------------
C----9-9----9-9----9-9----9-9----9-9----9--
G-xx-7-7-xx-7-7-xx-7-7-xx-7-7-xx-7-7-xx-7--
C-xx-----xx-----xx-----xx-----xx-----xx----

Tan solo ven escuchame tu sabes...
Olvidame otra vez hazme...


D---------------------------------
A-8/7-8/7-8/7-8/7-8/7-8/7-8/7-8/7-
F---------------------------------
C---------------------------------
G---------------------------------
C---------------------------------

D---------------------------------------------------------------------
A---------------------------------10-10-10-10-10-10-10-8-8-8-8-7-7-7-7
F---------------------------------------------------------------------
C---9-9-9-9-9-9--11-11-11-11-11-11------------------------------------
G---7-7-7-7-7-7---9--9--9--9--9--9------------------------------------
C---------------------------------------------------------------------
Destrózame y arráncame de todo lo k soy

D---------------------------------------------------------------------
A---------------------------------10-10-10-10-10-10-10-8-8-8-8-7-7-7-7
F---------------------------------------------------------------------
C---9-9-9-9-9-9--11-11-11-11-11-11------------------------------------
G---7-7-7-7-7-7---9--9--9--9--9--9------------------------------------
C---------------------------------------------------------------------

Hazme entender quiero verte desde este momento


Después siguen estos acordes acompañados del violín

RE5  MI5  DO5

C-9---11----7
G-7----9----5

D---------------------------------
A---------------------------------
F---------------------------------
C-9-9-9-9-9-9-9-9-9-9-9-9-9-9-9-9 en esta parte va pausado
G-7-7-7-7-7-7-7-7-7-7-7-7-7-7-7-7
C---------------------------------

Iwal k aier y saber k siento por k sangro

D---------------------------------
A---------------------------------
F---------------------------------
C-11-11-11-11-11-11-11-11-11-11-11 iwal va pausado
G--9--9--9--9--9--9--9--9--9--9--9
C---------------------------------

Y saber k miento si t extraño olvidame otra vez

D-----------------------------------
A-----------------------------------
C-x-x-x-x-x-x-x-x-x-x-x-x-x-x-x-x-9-
G-x-x-x-x-x-x-x-x-x-x-x-x-x-x-x-x-7-
C-x-x-x-x-x-x-x-x-x-x-x-x-x-x-x-x---

D---------------------------------------------------------------------
A---------------------------------10-10-10-10-10-10-10-8-8-8-8-7-7-7-7
F---------------------------------------------------------------------
C---9-9-9-9-9-9--11-11-11-11-11-11------------------------------------
G---7-7-7-7-7-7---9--9--9--9--9--9------------------------------------
C---------------------------------------------------------------------
Destrózame y arráncame de todo lo k soy

D---------------------------------------------------------------------
A---------------------------------10-10-10-10-10-10-10-8-8-8-8-7-7-7-7
F---------------------------------------------------------------------
C---9-9-9-9-9-9--11-11-11-11-11-11------------------------------------
G---7-7-7-7-7-7---9--9--9--9--9--9------------------------------------
C---------------------------------------------------------------------

Hazme entender quiero verte desde este momento


No tardas en volver tu sola
Y piensas k estoi bn  --------
Suggest correction
Give kudos to tab author, rate the tab!
1 2 3 4 5
comments
print report bad tab
guest
You may want to rate the tab now too:
select rating
Wanna post a correction for this tab? Suggest correction