Oops, an error
Loading. Please wait.

Yo Te Amo tab

version 2
version 2

Whole song

96 views 1 this week
no commentswrite comment
1 2 3 4 5
3 more votes to show rating
add to favorites
×
Save as Personal and add changes to this tab that will be seen only by you. Learn more ›
×
You can save this tab as Personal to edit and correct it or add notes. All changes will be seen only by you. Learn more »
launch autoscroll
font size
0
reset
how to read this tab
guitar tuner
edit
Autoscroll
slow
fast
+/-
esc
set tempo
stop
Yo Te Amo

INTRO: F

-------------------------------------------------
-------------------------------------------------
--------5-5--2----5-2----5-5--2------------------
---3-3---------3------3--------------------------
-------------------------------------------------
------------------------------------------------- (x4)


Melodía de la voz:

 ( ella fue la espia de mi corazon, eso fue lo que me mato de ella )
---------------------------------------------------------------------
--------------------1^3-1-1--------------------1---------------------
---2-55-2-5-5--2-5-----------3-2-3--32-32-3/2-----2------------------
---------------------------------------------------------------------
---------------------------------------------------------------------
---------------------------------------------------------------------

 ( ella puso fin, me dijo tu enemigo sos vos,
    y subimos a un globo buscando solo las estrellas )
---------------------1^0-1^0-----------------------------------------
-------------------3---------3-1-------------------------------------
---2-55-2-5--2-5-------------------3-2-3/2^3-3---2-3-2-3-2-3-2-0-----
------------------------------------------------------------------3--
---------------------------------------------------------------------
---------------------------------------------------------------------


Acordes:

F                        C
Ella fue la espía de mi corazon
     Bb                       F
eso fue lo que me mato de ella
F                             C
ella puso fin, me dijo tu enemigo sos vos
     Bb                                    F
y subimos a un globo buscando solo las estrellas.


            Bb     C            F
Voy a ser feliz debajo de sus sábanas
            Bb       C                  F
le voy a pedir que me haga un huequito en su cama
               Bb        Gdim            Bbmaj7 o F
va a decir que si, porque tengo la pócima mágica,
               Bb       C      F
las palabras clásicas, yo te amo.

(intro)x4

F                           C
Cuando nos despedimos en el ascensor
  Bb                                    F
segun su version, ella no había hecho nada
F                                 C
  que todo fue mi culpa que el bandido fui yo
           Bb                           F
mientras me besaba, agarradita a mi corbata.

            Bb     C            F
Me dejaste alli, me dejaste de pago
            Bb       C                      F
Me clavaste ahi, sonriendo medio loco y borracho
             Bb             Gdim            Bbmaj7 o F
y cuando llegaste a tu casa me escribiste que plato...(que simpatica pense)
               Bb       C      F
Yo le respondi al toque: yo te amo.

(intro)x2

            Bb     C            F
Voy a ser feliz debajo de sus sábanas
            Bb       C                   F
le voy a pedir que me haga un huequito en su cama
               Bb        Gdim            Bbmaj7 o F
va a decir que si, porque tengo la pocima clásica,
               Bb       C      F
las palabras mágicas, yo te amo.

...No fallan...
C       F
Yo te amo.

*Gdim: 345353
*se puede usar tambien Esemidim/A: x02323


A una persona muy especial y que es la espía de mi corazon. ;)

            
            
Suggest correction
Creating personal tab
Creating personal tab
You can edit any tab online and save it as your Personal.

You can edit, replace or remove any tab part or add personal notes – all changes will be seen only by you.

Personal tabs can be accessed anytime from any device, even offline.
Learn more »
Give kudos to tab author, rate the tab!
1 2 3 4 5
comments
print report bad tab
guest
Wanna post a correction for this tab? Suggest correction