Oops, an error
Loading. Please wait.

Lluvia Púrpura tab

version 2
version 2

Whole song

43 views 1 this week
no commentswrite comment
1 2 3 4 5
3 more votes to show rating
add to favorites
×
Save as Personal and add changes to this tab that will be seen only by you. Learn more ›
×
You can save this tab as Personal to edit and correct it or add notes. All changes will be seen only by you. Learn more »
launch autoscroll
font size
0
reset
how to read this tab
guitar tuner
edit
Autoscroll
slow
fast
+/-
esc
set tempo
stop
Intro
							      x2
e|-------------------------------------------------------------|
B|-------------------------------------------------------------|
G|------3/5--5--3/5--5--3/5--3--------------3/5--5--3/5--------|
D|-3/5--3/5--5--3/5--5--3/5--3--5--3---3/5--3/5--5--3/5--3--5--|
A|-3/5--1/3--3--1/3--3--1/3--1--5--3---3/5--1/3--3--1/3--3--5--|
E|-1/3--------------------------3--1---1/3---------------1--3--|

	   x7
e|----------|--------------------|
B|----------|--------------------|
G|----------|---3p0--------------|
D|-3/5-x--5-|-------3p0----------|
A|-3/5-x--5-|-----------3-1------|
E|-1/3-x--3-|---------------3-1--|

========================================================================

e|------------------------------|--------------|
B|------------------------------|--------------|
G|------------------------------|-3/5-x--5-----|
D|-3/5-x--5--3/5-x--5--3/5-x--5-|-3/5-x--5-----|
A|-3/5-x--5--3/5-x--5--3/5-x--5-|-1/3-x--3-----|
E|-1/3-x--3--1/3-x--3--1/3-x--3-|--------------|

  Todo comenzó cuando reinaba el rock and roll
  allá por los años setenta.
  Todo sucedió en medio de la confusión
				|--------------|
				|--------------|
				|-3/5-x--3-----|
				|-3/5-x--3-----|
				|-1/3-x--1-----|
				|--------------|
  en tiempos de paz y de guerra.

(Acompañamiento del estribillo)
|-------------------------------------------------------------------|
|-------------------------------------------------------------------|
|-------------------------------------------------------------------|
|-------------------------------------------------------------------|
|-8---------------6---------5-6-7--4---------3-4-5--6---------------|
|---5-6-7-8-1-3-5---3-4-5-6----------1-2-3-4----------3-4-5-6-5-4-3-|

  Y a través de una ventana gris
  encontré la libertad.
  Lluvia púrpura caía
  y soñaba con ser un rockstar.

  Hijo del hard rock me convertí por elección
  en una mala influencia.
  Y le di mi amor a chicas sin reputación,
  era mejor la experiencia.

  Y en el barrio cuestionaban
  mi deber y mi moral
  y el volúmen de mi banda
  sacudía la paz del hogar.

|--------------------------------------------------------------|
|--------------------------------------------------------------|
|--3-----------------------------------------------------------|
|-----5-6-7------------------------------------------------5v--|
|-----------5-6-7---0-3--0-5--0-6--0-7------0-3--0-5--0-7------|
|---------------------------------------3v---------------------|

|----------------------------|
|---------------------8v-----|
|---5----7----8----9---------|
|-7----7----7----7-----------|
|----------------------------|
|----------------------------|

Despues del solo Comienza la primera estrofa pero se sube la tonalidad:


e|------------------------------|--------------|
B|------------------------------|--------------|
G|------------------------------|-5/7-x--7-----|
D|-5/7-x--7--5/7-x--7--5/7-x--7-|-5/7-x--7-----|
A|-5/7-x--7--5/7-x--7--5/7-x--7-|-3/5-x--5-----|
E|-3/5-x--5--3/5-x--5--3/5-x--5-|--------------|

  Todo comenzó cuando reinaba el rock and roll
  allá por los años setenta.
  Todo sucedió en medio de la confusión
				|--------------|
				|--------------|
				|-5/7-x--5-----|
				|-5/7-x--5-----|
				|-3/5-x--3-----|
				|--------------|
  en tiempos de paz y de guerra.


(Acompañamiento del estribillo)
|----------------------------------------------------------------------|
|----------------------------------------------------------------------|
|----------------------------------------------------------------------|
|----------------------------------------------------------------------|
|-10-----------------8---------7-8-9--6---------5-6-7--8---------------|
|----7-8-9-10-3-5-7----5-6-7-8----------3-4-5-6----------5-6-7-8-7-6-5-|

Y a través de una ventana gris
encontré la libertad.
Lluvia púrpura caía
y soñaba con ser un rockstar.
							      x3
e|-------------------------------------------------------------|
B|-------------------------------------------------------------|
G|------5/7--7--5/7--7--5/7--5--------------5/7--7--5/7--------|
D|-5/7--5/7--7--5/7--7--5/7--5--7--5---5/7--5/7--7--5/7--5--7--|
A|-5/7--3/5--5--3/5--5--3/5--3--7--5---5/7--3/5--5--3/5--5--7--|
E|-3/5--------------------------5--3---3/5---------------3--5--|

	   x7
e|----------|------------|
B|----------|------------|
G|----------|--5---------|
D|-5/7-x--7-|--5--5---7--|
A|-5/7-x--7-|--3--5---7--|
E|-3/5-x--5-|-----3---5--|

            
            
Suggest correction
Creating personal tab
Creating personal tab
You can edit any tab online and save it as your Personal.

You can edit, replace or remove any tab part or add personal notes – all changes will be seen only by you.

Personal tabs can be accessed anytime from any device, even offline.
Learn more »
Give kudos to tab author, rate the tab!
1 2 3 4 5
comments
print report bad tab
guest
Wanna post a correction for this tab? Suggest correction