Oops, an error
Loading. Please wait.

Noche Sin Sueños tab

version 1
version 1

Whole song

574 views 1 this week
no commentswrite comment
1 2 3 4 5
3 more votes to show rating
add to favorites
×
Save as Personal and add changes to this tab that will be seen only by you. Learn more ›
×
You can save this tab as Personal to edit and correct it or add notes. All changes will be seen only by you. Learn more »
launch autoscroll
font size
0
reset
how to read this tab
guitar tuner
edit
Autoscroll
slow
fast
+/-
esc
set tempo
stop

   la progresion de acordes que empieza con el organo 
son tres
   
   Bm   A  D  A Bm (Bm) A D A Bm etc....


    Bm           A  D                   A 
    la noche esta murmurando con su brisa

    Bm           A  D                    A 
    habla de vos me recuerda tus caricias

    
  y asi te la llevas solo que no he podido sacar toda 
 la rola pero el primer solo de la cancion aqui les va

 e------------------------
 B------------------------------12b--12br-12----
 G--6---6-7-9---11--9-7-6----4-----
 D---------------------------
 A-------------------------------------
 E--------------------------------------

 e-----------------------------
 B---10h-12p-10----8h-10p-8--7-------------
 G-------------------------------9--7---------
 D-------------------------------------11--9-----
 A--------------------------
 E---------------------------

   y eso es todo disculpen que no sea toda pero
 ustedes saben lo dificil que es encontrar rolas
 de esta banda en el internet por eso mande solo eso 
 pero en cuanto tenga lo demas lo meto 
 y si alguno de ustedes esta interesado en algunos
 tabs de Led Zeppelin escribanme de ellos 
si tengo alguna que otra chida y con todo y solos.
Suggest correction
Creating personal tab
Creating personal tab
You can edit any tab online and save it as your Personal.

You can edit, replace or remove any tab part or add personal notes – all changes will be seen only by you.

Personal tabs can be accessed anytime from any device, even offline.
Learn more »
Give kudos to tab author, rate the tab!
1 2 3 4 5
comments
print report bad tab
guest
Wanna post a correction for this tab? Suggest correction