Oops, an error
Loading. Please wait.

Entre Ella Y Tú tab

version 2
version 2

Whole song

8 views 1 this week
no commentswrite comment
1 2 3 4 5
3 more votes to show rating
add to favorites
×
Save as Personal and add changes to this tab that will be seen only by you. Learn more ›
×
You can save this tab as Personal to edit and correct it or add notes. All changes will be seen only by you. Learn more »
launch autoscroll
font size
0
reset
how to read this tab
guitar tuner
edit
Autoscroll
slow
fast
+/-
esc
set tempo
stop
Entre ella y tú
Nicho Hinojosa

*Los akordes estaban bien pero pues si mandan tabs, mandenlas kompletas
*Corrección del intro k ya estaba

INTRO:

e.|-------3--1-0-------------3------3--3----1----1--1-0----------------------------0--------3------1-0-------3--|e
b.|--1---1-------3-1--0----0-------0--0----------1------3----1---1--1h0-------0h1h3-----1---1---------3-1-0-----|b
g.|-----0----------------0-----------------------3--------(0)-(0)---------------------------2-------------------|g
D.|--2----------------2--------------------------0------------------------------------------0-------------------|D
A.|-------------------------------------------------------------------------------------------------------------|A
E.|-------------------------------------------------------------------------------------------------------------|E


e.|----3--3-----1---1--1--1--0-------------------|e
b.|--0---0------1----------------3--1--1--1h0----|b
g.|----------------------------------------------|g
D.|----------------------------------------------|D
A.|----------------------------------------------|A
E.|----------------------------------------------|E


               C           Em         F     G              C   Asus-A7    Dm7            G         C
e.|---------------0-----------0--------------------------------------------1---------------3---------0----|e
b.|--------------1-----------0---------1------3------------------3--2-----1---------------3---------1-----|b
g.|-------------0-----------0---------2------4---------------0---2--0----2---------------0---------0------|g
D.|------------2-----------2---------3------5---------------2-----------0---------------0---------2-------|D
A.|-----------3--------------------------------------------3-------------------------------------3--------|A
E.|-----------------------0---------1------3-------------------------------------------3------------------|E

Entre ella y tú  hay dos mundos,  uno de amor y otro de egoísmo,  no entiendo el por qué de tus dudas     


   Asus-A7           Dm7                 G                           C             Em      Dm7
e.|-------------------1-1-------------------------------------------------------------0---1--1------------|e
b.|--3--2------------1-1-1-------------------0--1--3------------------1--0--1--------0----1--1------------|b
g.|--2--0-----------2--------------------0---0--0--0------------------0--0--0-------0-----2--2------------|g
D.|----------------0--------------------0------------------------------------------2------0--0------------|D
A.|-----------------------------------------------------------------3-------------------------------------|A
E.|------------------------------------3------------------------------------------0-----------------------|E

           Si entre ella y tú hay un abismo ,         Entre ella y tú          yo elegí       


      F            G 
e.|-------------------------------------------1-----------3--------------------------1-1----------------------------|e
b.|-----1------------3-------------3--2------1-1---------3---------------3--2-------1-1-1------------------0--1--3--|b
g.|----2------------4----------0---2--0-----2-----------0----------0-----2--0------2-------------------0---0--0--0--|g
D.|---3------------5----------2------------0-----------0----------2---------------0-------------------0-------------|D
A.|--------------------------3-----------------------------------3--------------------------------------------------|A
E.|--1------------3-----------------------------------3----------------------------------------------3--------------|E
entre el infierno o el cielo,           poder ver la luz o ser ciego,           poder respirar o ahogarme


 

e.|-----1---------1--1--|e
b.|----1----------1--1--|b
g.|---2-----------2--2--|g
D.|--0------------0--0--|D
A.|---------------------|A
E.|---------------------|E
                                G
     Poder ser yo mismo  o    nadie

  F               Em
Entre ella y tú, entre ella y tú

   Em7             Asus        A7
no vale la pena ni hablar del tema

   Dm7                  G
tu amor ha quemado su huella

   Dm7                  G
prefiero ser tuyo que de ella

  G7         C
entre ella y tú


Dm7          G
Gracias a ti quiero vivir

Dm7             Em            Asus   A7
de cara a la verdad y no de espaldas

Dm7                  G      
ahora sé ganar y perder

 Dm7                        G          
ahora se que quiero y a quién

  F               Em
entre ella y tú, gracias a ti

   Asus           A7
ya sé quien soy y adonde voy

Dm7                 G      
ahora sé ganar y perder

 Dm                       G          
ahora se que quiero y a quién

  Dm7        C   
entre ella y tú
          
        Dm7       D7sus4     C                                         C
e.|-----1-1-1------3-----------0-----------------------0---0---0--------0--|e
b.|----1-1-1-1-----1----------1-----------------------1-1---1---1-------1--|b
g.|---2------------2---------0-----------------------0---0---0---0------0--|g
D.|--0-------------0--------2-----------------------2-------------------2--|D
A.|------------------------3-----------------------3--------------------3--|A
E.|------------------------------------------------------------------------|E

               
                                      entre ella y tú.


Sugerencias o si kieren k sake alguna 
del maestro Nicho ahi me avisan

saludos al kolOn
Veracruz, ver.

            
            
Suggest correction
Creating personal tab
Creating personal tab
You can edit any tab online and save it as your Personal.

You can edit, replace or remove any tab part or add personal notes – all changes will be seen only by you.

Personal tabs can be accessed anytime from any device, even offline.
Learn more »
Give kudos to tab author, rate the tab!
1 2 3 4 5
comments
print report bad tab
guest
Wanna post a correction for this tab? Suggest correction