Oops, an error
Loading. Please wait.

A Cochabamba Me Voy tab

76 views 1 this week
no commentswrite comment
1 2 3 4 5
3 more votes to show rating
add to favorites
×
Save as Personal and add changes to this tab that will be seen only by you. Learn more ›
×
You can save this tab as Personal to edit and correct it or add notes. All changes will be seen only by you. Learn more »
launch autoscroll
font size
0
reset
how to read this tab
guitar tuner
edit
Autoscroll
slow
fast
+/-
esc
set tempo
stop
Te Recuerdo Amanda

Intro : 
    E7        A
E||------||---9-----9-----12----9---12--|----12----9-----12--9-----|
B||------||---10----10----14----10--14--|----14----10----14--10----|
G||------||*----------------------------|--------------------------|
D||------||*----------------------------|--------------------------|
A||------||-----------------------------|--------------------------|
E||------||-----------------------------|--------------------------|
                               Nos vamos pa Cochabamba hermano-oh

  E                                                      B7                           
--7--7--7--7--11--11----11--|----11----7--11--7----7--|--5--5--5--5--9---5----9---|
--9--9--9--9--12--12----12--|----12----9--12--9----9--|--7--7--7--7--10--7----10--|
----------------------------|-------------------------|---------------------------|
----------------------------|-------------------------|---------------------------|
----------------------------|-------------------------|---------------------------|
----------------------------|-------------------------|---------------------------|


                           E                          E7                         
----9-----5----9---5----|--4--4----4--4--4----4--|----4--4--4--4--4--4--4---||
----10----7----10--7----|--5--5----5--5--5----3--|----3--3--3--3--3--3--3---||
------------------------|------------------------|-------------------------*||
------------------------|------------------------|-------------------------*||
------------------------|------------------------|--------------------------||
------------------------|------------------------|--------------------------||
                                                    final 1

  E             B7      E                                 
--4----4--------2----|--4----------------||
--5----5--------4----|--5----------------||
----------------2----|--4----------------||
----------------4----|--2----------------||
----------------2----|-------------------||
---------------------|-------------------||
final 2

                  B7
A Cochabamba me voy,
                 E
a Cochabamba señores,
                  B7
cantarán los ruiseñores,
                 E
a Cochabamba me voy.
¡Inti!

A Cochabamba me voy,
a Cochabamba señores,
cantarán los ruiseñores,
a Cochabamba me voy.
¡Inti!

         B7
Inti p'allá
         E
inti p'acá,
           B7
inti pa'l norte,
           E
inti pa'l west,
               B7
cuidao con la CIA,
                  E
que vienen los gusanos.
              B7
No maten a Regis
              E
y vámonos hermanos.

          A     
¡Ratatatatá!, se les perdieron
          E
¡Ratatatatá!, aparecieron
          B7
¡Ratatatatá!, era mentira
                         E
que se acabaron las guerrillas.

¡Ratatatatá!, se les perdieron
¡Ratatatatá!, aparecieron
¡Ratatatatá!, era mentira
que se acabaron las guerrillas.

Intro

A Cochabamba me voy,
a Cochabamba señores,
cantarán los ruiseñores,
a Cochabamba me voy.
¡Inti!

A Cochabamba me voy,
a Cochabamba señores,
cantarán los ruiseñores,
a Cochabamba me voy.
¡Inti!

¡Ra-ra-rá!


Acordes usados :

   B7   A    E7  
---2----0----0----
---0----2----3----
---2----2----1----
---1----2----2----
---2----0----2----
---0----0----0----

            
            
Suggest correction
Creating personal tab
Creating personal tab
You can edit any tab online and save it as your Personal.

You can edit, replace or remove any tab part or add personal notes – all changes will be seen only by you.

Personal tabs can be accessed anytime from any device, even offline.
Learn more »
Give kudos to tab author, rate the tab!
1 2 3 4 5
comments
print report bad tab
guest
Wanna post a correction for this tab? Suggest correction