Oops, an error
Loading. Please wait.

A Luis Emilio Recabarren tab

101 views 1 this week
no commentswrite comment
1 2 3 4 5
3 more votes to show rating
add to favorites
×
Save as Personal and add changes to this tab that will be seen only by you. Learn more ›
×
You can save this tab as Personal to edit and correct it or add notes. All changes will be seen only by you. Learn more »
launch autoscroll
font size
0
reset
how to read this tab
guitar tuner
edit
Autoscroll
slow
fast
+/-
esc
set tempo
stop
Compañeros, aquí les va otra tab de Víctor (100% revisada).
Espero que les guste y que esto sirva para que la música
chilena se expanda mucho más. Está súper fácil, asi que a
ponerle hartas ganas y a practicar. Suerte!!!!!!!!!!!!!

Intro:

   Am                  Bb4a/F
E||--------0-----0-----|--------0-----0-----|
B||------5---5-----5---|------3---3-----3---|
G||----5-------5-----5-|----3-------3-----3-|
D||--------------------|--------------------|
A||--------------------|--------------------|
E||--5-----------------|--1-----------------|


  Am                  Bb4a/F                 
--------0-----0-----|--------0-----0-----|         
------5---5-----5---|------3---3-----3---|          
----5-------5-----5-|----3-------3-----3-|          
--------------------|--------------------|         
--------------------|--------------------|          
--5-----------------|--1-----------------|          

  Am                  Bb4a/F
--------0-----0-----|--------0-----0-----|
------5---5-----5---|------3---3-----3---|
----5-------5-----5-|----3-------3-----3-|
--------------------|--------------------|
--------------------|--------------------|
--5-----------------|--1-----------------|

  Gm      Am        Cm                   

------------------|-------------------|
------3-------5---|------8---8--------|
----3---3---5---5-|----8---8----------|
------------------|-------------------|
------------------|-------------------|
--3-------5-------|--8----------------|

  E
-------------------|
-------------------|
--------1----------|
------2------------|
----2--------------|
--0----------------|

Parte A:
C7+/G                F - G
Pongo en tus manos abiertas
Dm/A    E7         Am - A4 - Am
mi guitarra de cantor,
C7+/G    C7        F G
martillo de los mineros,
Dm/A   E7       Am - A4 - Am
arado del labrador.

Parte B:
F   G
Recabarren, 
 F    G      F G    Am
Luis Emilio Recabarren,
 G     F
simplemente
 G        F         G   Am
doy las gracias por tu luz.
 F      G
Con el viento,
 F      G      F  G  Am
con el viento de la pampa
 G      F
tu voz sopla
 G      F           G   Am
por el centro y por el sur

Intro

Parte A:
Árbol de tanta esperanza,
naciste en medio del sol,
tu fruto madura y canta
hacia la liberación.

Parte B:
Recabarren...

Intro perdiéndose

Acordes:

 Bb4a/F  Dm/A  A4  C7  C7+/G
---0------1----0---0----0----
---3------3----3---0----0----
---3------2----2---0----0----
---0-----------2---2----2----
---0------0----0---3----3----
---1-----------0---0----3----

Un saludo especial para mi tío Pedro, que fue quien me
mostró la gran obra de Víctor.

            
            
Suggest correction
Creating personal tab
Creating personal tab
You can edit any tab online and save it as your Personal.

You can edit, replace or remove any tab part or add personal notes – all changes will be seen only by you.

Personal tabs can be accessed anytime from any device, even offline.
Learn more »
Give kudos to tab author, rate the tab!
1 2 3 4 5
comments
print report bad tab
guest
Wanna post a correction for this tab? Suggest correction