Oops, an error
Loading. Please wait.

Corazón Atómico tab

version 2
version 2

Whole song

Interactive

by Zoe
85 views 1 this week
no commentswrite comment
1 2 3 4 5
2 more votes to show rating
add to favorites
×
Save as Personal and add changes to this tab that will be seen only by you. Learn more ›
×
You can save this tab as Personal to edit and correct it or add notes. All changes will be seen only by you. Learn more »
launch autoscroll
font size
0
reset
how to read this tab
guitar tuner
edit
Autoscroll
slow
fast
+/-
esc
set tempo
stop
ZOE
CORAZON ATÓMICO
Para esta canción se necesitan dos guitarras
Una de ellas debe de ser eléctrica
Para que salga bien chida deben de
Subirle totalmente los grabes a la guitarra
Eléctrica y bajarle los agudos.
La verdad suena bien creo, es mi primera
Transcripción y se la dedico a Astrid Quetzal...
Te amo pequeña.
Acordes 2da guitarra: G(E300023e) ,Bm(E799777e)

Empieza así:

4 -------4---4---4-5-4---4---4---4-5----
5 --5-5----5---5-------5---5---5--------
6 --------------------------------------
                                               X 2
4 ------4---4---4-4---------4---4---4-4-
5 --2-2---2---2---------2-2---2---2-----
6 --------------------------------------


4 -------4---4---4-5-4---4---4---4-5----
5 --5-5----5---5-------5---5---5--------
6 --------------------------------------
Dime si me estoy volviendo loco
4 ------4---4---4-4---------4---4---4-4-
5 --2-2---2---2---------2-2---2---2-----
6 --------------------------------------


4 -------4---4---4-5-4---4---4---4-5----
5 --5-5----5---5-------5---5---5--------
6 --------------------------------------
Dime por favor si a ti te pasa igual
4 ------4---4---4-4---------4---4---4-4-
5 --2-2---2---2---------2-2---2---2-----
6 --------------------------------------

4 -------4---4---4-5-4---4---4---4-5----
5 --5-5----5---5-------5---5---5--------
6 --------------------------------------
MI corazón atómico
4 ------4---4---4-4---------4---4---4-4-
5 --2-2---2---2---------2-2---2---2-----
6 --------------------------------------
En cuenta regresiva esta

4-------4---4---4-5-4---4---4---4-5----
5--5-5----5---5-------5---5---5--------
6--------------------------------------
Parece que perdí el control uuu
4------4---4---4-4---------4---4---4-4-
5--2-2---2---2---------2-2---2---2-----
6--------------------------------------
A mi ya no, ya no me importa nada


4 -------4------4---------4--------4-----
5 -5-5-5-5--5-5-5---2-2-2-2--2-2-2-2-----
6 ---------------------------------------
uuuuuuuuuuuuu
4 --------4--------4---------------------
5 --2-2-2-2--2-2-2-2--2-2-2/5------------
6 ---------------------------------------


4-------4---4---4-5-4---4---4---4-5----
5--5-5----5---5-------5---5---5--------
6--------------------------------------
   G                       Bm
Acaricia mi alma, suaviza mi ser
4------4---4---4-4---------4---4---4-4-
5--2-2---2---2---------2-2---2---2-----
6--------------------------------------

4-------4---4---4-5-4---4---4---4-5----
5--5-5----5---5-------5---5---5--------
6--------------------------------------
   G                        G                  x 2
Esteriliza mi sangre y purifica mi amor
4------4---4---4-4---------4---4---4-4-
5--2-2---2---2---------2-2---2---2-----
6--------------------------------------


1 -------------
2 -------------       x 9
3 --7/9-9 x----

Parece que perdí el control
4 ------------------------------------------
5 ------3---3---3-4-3-----3---3---3-4-------
6 --4-4---4---4---------4---4---4-----------
Pero ya no ya no me importa nada
4 ------------------------------------------
5 -----3---3---3---3-3------3---3---3---3-3-
6 -1-1---1---1---1------1-1---1---1---1-----


4 -------4---4---4-5-4---4---4---4-5----
5 --5-5----5---5-------5---5---5--------
6 --------------------------------------
Y dime si me estoy volviendo loco...
4 ------4---4---4-4---------4---4---4-4-
5 --2-2---2---2---------2-2---2---2-----
6 --------------------------------------

4 -------4---4---4-5-4---4---4---4-5----
5 --5-5----5---5-------5---5---5--------
6 --------------------------------------
Dime por favor si a ti te pasa igual
4 ------4---4---4-4---------4---4---4-4-
5 --2-2---2---2---------2-2---2---2-----
6 --------------------------------------
  G
I just don?t know where i´m going,
  Bm
but i know where I'll stay
  G
i just don't know where to find her


4-------4---4---4-5-4---4---4---4-5----
5--5-5----5---5-------5---5---5--------
6--------------------------------------
   G                       Bm
Acaricia mi alma, suaviza mi ser
4------4---4---4-4---------4---4---4-4-
5--2-2---2---2---------2-2---2---2-----
6--------------------------------------

4-------4---4---4-5-4---4---4---4-5----
5--5-5----5---5-------5---5---5--------
6--------------------------------------
   G                        G                  x 2
Esteriliza mi sangre y purifica mi amor
4------4---4---4-4---------4---4---4-4-
5--2-2---2---2---------2-2---2---2-----
6--------------------------------------

1 -------------
2 -------------   G    x ...hasta el fin
3 --7/9-9 x----

ES TODO HABER SI SALE VA SE ESCUCHA BIEN
MUCHA PAZ Y RESPETO.

            
            
Suggest correction
Creating personal tab
Creating personal tab
You can edit any tab online and save it as your Personal.

You can edit, replace or remove any tab part or add personal notes – all changes will be seen only by you.

Personal tabs can be accessed anytime from any device, even offline.
Learn more »
Give kudos to tab author, rate the tab!
1 2 3 4 5
comments
print report bad tab
guest
Wanna post a correction for this tab? Suggest correction