Oops, an error
Loading. Please wait.

La Mujer Que Amas tab

version 2
version 2

Whole song

28 views 1 this week
no commentswrite comment
1 2 3 4 5
3 more votes to show rating
add to favorites
×
Save as Personal and add changes to this tab that will be seen only by you. Learn more ›
×
You can save this tab as Personal to edit and correct it or add notes. All changes will be seen only by you. Learn more »
launch autoscroll
font size
0
reset
how to read this tab
guitar tuner
edit
Autoscroll
slow
fast
+/-
esc
set tempo
stop
 Gm6        Gm6*       Ebdim
e----0--   e----0--    e----2--
B----3--   B----3--    B----1--
G----3--   G----3--    G----2--
D----2--   D----5--    D----1--
A----*--   A----*--    A----*--
E----*--   E----*--    E----*--

INTRO
        Gm6      Gm6*      A7
e-----------------------------------|
B----5-6-5----5-6-5----8-6-5/6/5---5|
G--7--------7--------7-----------7--|
D-----------------------------------|
A-----------------------------------|
E-----------------------------------|

                   Bb
Si sientes que tus ojos,
      Gm         A7
se iluminan, al mirar, su cara,
          F               C    Dm
y el corazón, tiembla de amor,
       C
y te sacude, los hilos del alma,
        Gm            Gm Gm
es la señal, de su llega_da
Bb Bb   A7   G  A   D
es sin duda, la mu_jer, que amas.

CORO

D
Abre tus alas,
                    A7
dile que ya la esperabas,

dale tus sueños,
                 D
no dejes que se vaya.

Dile que nadie,
         Ebdim        Em       A7
te hará cambiar este amor, por ella,
Em                A7
dile que el amor existe,
Em               A7       D
dile que lo descubriste en ella.

                  Bb
Si sientes que le hablas,
        Gm         A
con los ojos, tan solo, con tocarla,
           F                C    Dm
en tu interior, sientes el sol,
           C
arden tus venas y tus ganas,
            Gm             Gm Gm
y hasta te sientes como un ni_ño,
Bb Bb   A7   G   A  D
es sin duda, la mu_jer, que amas.

CORO

D
Abre tus alas,
                    A7
dile que ya la esperabas,

dale tus sueños,
                 D
no dejes que se vaya.

Dile que nadie,
         Ebdim        Em       A7
te hará cambiar este amor, por ella,
Em                A7
dile que el amor existe,
Em               A7       D
dile que lo descubriste en ella.

PUENTE

          Bb
Cuando se ama a una mujer,
             C           D
logras entender, el verdadero amor,

el verdadero amor,
A7
ámala por siempre así,
                    D
ella te dirá que es tuya.

HABLADO...

Cuando en verdad, tú amas a una mujer.


SOLO
          Bb            Gm                      A7
e-----------------------------------8-8-6-5---5/6/5--/5-
B----5-6-5/6/5----5-6-5/6/5--/5/6/8---------8------/8---
G--7------------7----------/7---------------------------
D-------------------------------------------------------
A-------------------------------------------------------
E-------------------------------------------------------

e----------------------------------
B--5-8-8-6-5---5/6/5--/5-----------
G------------7------/7--/7/6-------
D----------------------------------
A----------------------------------
E----------------------------------


   F    C     F                       C
e-----------5-6-5---5-6-5-------5-------
B-------6-8-------8-------6---6---------
G-----5---------------------5-----------
D---------------------------------------
A---------------------------------------
E---------------------------------------


e----8-12-12-10-10-8-8----------------------------------
B--8-------------------8-8----6-8-6-5----5-6-8---6-8-6-5
G--------------------------------------7----------------
D-------------------------------------------------------
A-------------------------------------------------------
E-------------------------------------------------------

         Gm             Gm Gm
Y si te sientes como un ni_ño,
Bb Bb   A7   G   A  D
es sin duda, la mu_jer, que amas.

CORO

D
Abre tus alas,
                    A7
dile que ya la esperabas,

dale tus sueños,
                 D
no dejes que se vaya.

Dile que nadie,
                      Em       A7
te hará cambiar este amor, por ella,
Em                A7
dile que el amor existe,
Em               A7       D
dile que lo descubriste en ella.
Em                 A7
Dile que el amor existe,
Em               A7        D
dile que lo descubriste en ella.
Em                 A7
Dile que el amor existe,
Em               A7        D
dile que lo descubriste en ella.

FINAL

e-----------------0--2--5-5--3-3--2-2--0-0------2----10-|
B---------------3-2--3--7-7--5-5--3-3--1-1--1---3----10-|
G------------2--2---------------------------0---2----11-|
D-----0-2-4--4------------------------------------------|
A---0---------------------------------------------------|
E-------------------------------------------------------|
Suggest correction
Creating personal tab
Creating personal tab
You can edit any tab online and save it as your Personal.

You can edit, replace or remove any tab part or add personal notes – all changes will be seen only by you.

Personal tabs can be accessed anytime from any device, even offline.
Learn more »
Give kudos to tab author, rate the tab!
1 2 3 4 5
comments
print report bad tab
guest
Wanna post a correction for this tab? Suggest correction