Oops, an error
Loading. Please wait.

La Mujer Que Amas tab

version 1
version 1

Whole song

110 views 1 this week
no commentswrite comment
1 2 3 4 5
3 more votes to show rating
add to favorites
×
Save as Personal and add changes to this tab that will be seen only by you. Learn more ›
×
You can save this tab as Personal to edit and correct it or add notes. All changes will be seen only by you. Learn more »
launch autoscroll
font size
0
reset
how to read this tab
guitar tuner
edit
Autoscroll
slow
fast
+/-
esc
set tempo
stop
Intro
       Bbmaj7    Gm        A7                   Bbmaj7     X1323X
e-------------------------------------
B----5h6p5----5-6-5----8-6-5h6p5---5--
G--7--------7--------7-----------7----
D-------------------------------------
A-------------------------------------
E-------------------------------------

                    Bb
Si sientes que tus ojos,
    Gm           A7
se iluminan, al mirar, su cara,
        F             C       Dm
y el corazón, tiembla de amor,
       C
y te sacude, los hilos del alma,
        Gm
es la señal, de su llegada,
        A7        G         D
es sin duda, la mujer, que amas.

CORO
D                                A
Abre tus alas, dile que ya la esperabas,
                                  D
dale tus sueños, no dejes que, se vaya.
                                      Em         A
Dile que nadie, te hará cambiar este amor, por ella,
Em                A      Em               A       D
dile que el amor existe, dile que lo descubriste en ella.


Si sientes, que le hablas,
con los ojos, tan solo, con tocarla,
en tu interior, sientes el sol,
arden tus venas y tus ganas,
y hasta te sientes como un niño,
es sin duda, la mujer, que amas.

CORO

PUENTE
           Bb
Cuando se ama a una mujer,
             C           D
logras entender, el verdadero amor, el verdadero amor,
A
ámala por siempre así,
                    D
ella te dirá que es tuya.


SOLO
           Bb         Gm                               A7
Cuando en verdad,     tú   amas   a     una      mujer.
e-------------------------------------8-8-6-6-5-5---5h6p5---5---
B----5-6-5h6p5------5-6-5h6p5---5-6-8-------------8-------8-----
G--7-----------7--7-----------7---------------------------------
D---------------------------------------------------------------
A---------------------------------------------------------------
E---------------------------------------------------------------
                      F                            C
e-----------------------------5h6p5---5--------5-----8-10-10/12--
B-5-8-8--6-5---5h6p5------6-8-------8---6----8-----8-------------
G------------7----------5-----------------5----------------------
D----------------------------------------------------------------
A----------------------------------------------------------------
E----------------------------------------------------------------

e--10-10s8-8------------------------------------
B------------8-8--6-8--6-5---5h6p5-8---6-8-6-5--
G-----------------------------------------------
D-----------------------------------------------
A-----------------------------------------------
E-----------------------------------------------


           Gm
Y si te sientes como un niño,
        A         G         D
es sin duda, la mujer, que amas.

CORO

FINAL
Em                 A7     Em               A7        D
Dile que el amor existe, dile que lo descubriste en ella.
Em                         (A capela sin nota)          Riff 2
Dile que el amor existe, dile que lo descubriste, en ella.

Riff 2
   D
e---------------------0--2--5-5--3-3--2-2--0-0------2---10--
B------------------3--3--3--7-7--5-5--3-3--2-2--2---3---10--
G---------------2--2----------------------------0---2---11--
D--0---0--2--4--4-----------------------------------0----0--
A----0------------------------0-----------------0-----------
E-----------------------------------------------------------
Suggest correction
Creating personal tab
Creating personal tab
You can edit any tab online and save it as your Personal.

You can edit, replace or remove any tab part or add personal notes – all changes will be seen only by you.

Personal tabs can be accessed anytime from any device, even offline.
Learn more »
Give kudos to tab author, rate the tab!
1 2 3 4 5
comments
print report bad tab
guest
Wanna post a correction for this tab? Suggest correction