Oops, an error
Loading. Please wait.

Nunca Más tab

29 views 1 this week
no commentswrite comment
1 2 3 4 5
3 more votes to show rating
add to favorites
×
Save as Personal and add changes to this tab that will be seen only by you. Learn more ›
×
You can save this tab as Personal to edit and correct it or add notes. All changes will be seen only by you. Learn more »
launch autoscroll
font size
0
reset
how to read this tab
guitar tuner
edit
Autoscroll
slow
fast
+/-
esc
set tempo
stop
   D          Bm/A        D      Bm/A
|--------------0------------------0------------|
|------5-------3----------5-------3------3-----|
|------4-------4----------4-------4------4-----|
|--0-----------4-------0----------4------------|
|----------0------0-----------0-------0--------|
|----------------------------------------------|


|--------------0----------------------|
|------5-------3----------5--------3--|
|------4-------4----------4------4----|
|--0-----------4-------0-------4------|
|----------0------0----------0--------|
|-------------------------------------|
                            De niño


   F#m7      Em7            A9
|----------------3---------------------|
|--------2-------3-----3-----3---------|
|--------2---------------0-----2-------|
|------2-------------------------------|
|----4-----------2-----------0---------|
|--2-----2----0------0-----------------|
bailaba             canciones del moro


   Bm           Bm/A     Gmaj7    Asus4
|--2---------------------------------------|
|----3---------3--------3----------3-------|
|------4-------4--------4------------2-----|
|--------------4--------4--------2---------|
|--2--------0-----------------0------------|
|--------------------3---------------------|
el baile venia de adentro y así se inventaban los mundos.


   D       F#m           Em7        A
|-----------------2---------3------------|
|------5----------2-2-------3------2-----|
|------4------------2----------------2---|
|--0-----------2-------------------------|
|------------4--------------2------0-----|
|----------2------2-2----0------0--------|
De niño soñaba           olores profundos


   Bm        A          G9         A
|--------------------------------------------|
|--3---3---------2-----------------2---------|
|--4-4---4---------2--------2------2---------|
|----4---------2----------0---0----2---------|
|--2---------0---0-----------------0---------|
|-----------------------3--------------------|
la mezcla de espuma, colonia y sudor de unos pechos desnudos.


   D       Bm/A       D     Bm/A
|--------------0----------------------|
|------5-------3----------5--------3--|
|------4-------4----------4------4----|
|--0-----------4-------0-------4------|
|----------0------0----------0--------|
|-------------------------------------|
                           Creció

   F#m      Em7       A
|----2------------3----------------|
|----2-2--------3---------2--------|
|------2--------------------2------|
|-----------------------2----------|
|-------------2-------0---0--------|
|--2--------0----------------------|
con su sueño y un día le dijo


|------2---------2--------------|
|--3---3-----3---3--------------|
|----4---------4----------------|
|-------------------------------|
|--2-------0-0------------------|
|--------------------3----------|
acabo de verte y ya se que nací pa´ casarme contigo.


   D         F#m      Em7     A
|-----------2--------3-----------------|
|----5------2-2------3----------2------|
|----4--------2--------------------2---|
|--0--------------------------2--------|
|--------------------2------0---0------|
|--------2--------0-------0------------|
Matilde mi vida,       Matilde mi estrella


   Bm        Bm/A      Gmaj7     A
|-----------------------------------------|
|--3---3---------3---------3---------2----|
|----4---4-----4---4-----4---3-----2---2--|
|-----------------------------------------|
|--2---2-----0---0---------------0--------|
|----------------------3---3--------------|
le dijo que si nos casamos Antuan y bailó para ella.


   Bm              F#m              Em7          A7
|----------2---------2-------2--------------2--------------0-----|
|--------3---3-------2--2------2----------2---2--------2-----2---|
|------4-------4--------2---------------0----------------0-------|
|----4-----------------------------------------------2-----------|
|--2-----------2----------------------2------------0-------0---0-|
|------------------2-------2------2-0------------0---------------|
y abrázame fuerte,               que no pueda respirar,


|----2---------4--------3-----------------------|
|----3-3-------4-4------3-3--------2------------|
|----4-4-------4-4--------0----------2----------|
|----------------4---------------2--------------|
|--2----------------------2----0----------------|
|-----------2---------0-------------------------|
tengo miedo de que de que un día
ya no quiera bailar conmigo


|--------------0-----------------0-----|
|------5-------3----------5------3-----|
|------4-------4----------4------4-----|
|--0-----------4-------0---------4-----|
|----------0------0----------0---------|
|--------------------------------------|
nunca más.


(Aquí se repite con la misma armonía)

Cariño y ternura, colonias y besos
te tengo me tienes quisiera morirme agarrado a tus pechos.
El amor es tan grande, tan sincero y sentido,
que un día de lluvia Matilde acabó por tirarse en el río.

Y abrázame fuerte....

Mejor buenos recuerdos que un pasado perdido,
por eso un buen día Matilde acabó por tirarse en el río.
Lo que fue tan hermoso que no caiga al olvido,
te estaré recordando Matilde que tu no te has ido.

Y abrázame fuerte....


   Dmaj7
|----0----|
|----2----|
|---------|
|----4----|
|----5----|
|---------|
nunca más.

------------------

Esta gran canción la saqué por la mujer en mi vida: Anaid.

Por cualquier duda ya saben.

            
            
Suggest correction
Creating personal tab
Creating personal tab
You can edit any tab online and save it as your Personal.

You can edit, replace or remove any tab part or add personal notes – all changes will be seen only by you.

Personal tabs can be accessed anytime from any device, even offline.
Learn more »
Give kudos to tab author, rate the tab!
1 2 3 4 5
comments
print report bad tab
guest
Wanna post a correction for this tab? Suggest correction