Oops, an error
Loading. Please wait.

La Lista De La Compra tab

329 views 1 this week
1 commentread comment
1 2 3 4 5
2 more votes to show rating
add to favorites
×
Save as Personal and add changes to this tab that will be seen only by you. Learn more ›
×
You can save this tab as Personal to edit and correct it or add notes. All changes will be seen only by you. Learn more »
launch autoscroll
font size
0
reset
how to read this tab
guitar tuner
edit
Autoscroll
slow
fast
+/-
esc
set tempo
stop
  Gmaj7                               G9
e|---3--2-2-2-2-2-2|---3--2-2-2-2-2-2|---5--3-3-3-0-0--|---5--3-3-3-0-0--|
B|--3----3---3---3-|--3----3---3---3-|--3----3---3---3-|--3----3---3---3-|
G|-0---------------|-0---------------|-0---------------|-0---------------|
D|-----------------|-----------------|-----------------|-----------------|
A|-----------------|-----------------|-----------------|-----------------|
E|3----------------|3----------------|3----------------|3----------------|

  Gmaj7                               G9
e|---3--2-2-2-2-2-2|---3--2-2-2-2-2-2|---5--3-3-3-0-0--|---5--3-3-3-0-0--|
B|--3----3---3---3-|--3----3---3---3-|--3----3---3---3-|--3----3---3---3-|
G|-0---------------|-0---------------|-0---------------|-0---------------|
D|-----------------|-----------------|-----------------|-----------------|
A|-----------------|-----------------|-----------------|-----------------|
E|3----------------|3----------------|3----------------|3----------------|
Aiaaaaaaaaaaaaaaaaaiaiaiaiaaiiaaaaah

  Gmaj7                               G9
e|---3--2-2-2-2-2-2|---3--2-2-2-2-2-2|---5--3-3-3-0-0--|---5--3-3-3-0-0--|
B|--3----3---3---3-|--3----3---3---3-|--3----3---3---3-|--3----3---3---3-|
G|-0---------------|-0---------------|-0---------------|-0---------------|
D|-----------------|-----------------|-----------------|-----------------|
A|-----------------|-----------------|-----------------|-----------------|
E|3----------------|3----------------|3----------------|3----------------|
En el mismo folo, la lista de la compra
y una canción como un cupón de los ciegos

  Gmaj7                               G9
e|---3--2-2-2-2-2-2|---3--2-2-2-2-2-2|---5--3-3-3-0-0--|---5--3-3-3-0-0--|
B|--3----3---3---3-|--3----3---3---3-|--3----3---3---3-|--3----3---3---3-|
G|-0---------------|-0---------------|-0---------------|-0---------------|
D|-----------------|-----------------|-----------------|-----------------|
A|-----------------|-----------------|-----------------|-----------------|
E|3----------------|3----------------|3----------------|3----------------|
Rima la soledad, con el atún en aceite vegetal
y en oferta. ¡Vaya precios sin competencia!

G
Una mano pide el cielo,
   D
la otra en el cajón del pan.
Bm7
Hay manchas de grasa
              B7
de llanto, de tinta
estoy harto de tanto frotar.

Cm7                         Gm
Tú que eres tan guapa y tan lista.
            D                         Ab      Eb
Tu que te mereces un príncipe a un dentista, ¡Tu!
Cm             Gm
te quedas a mi lado
                D
y el mundo me parece
                  G7
más amable, más humano, menos raro.

Cm7                         Gm
Tú que eres tan guapa y tan lista.
            D                         Ab      Eb
Tu que te mereces un príncipe a un dentista, ¡Tu!
Cm             Gm
te quedas a mi lado
                D
y el mundo me parece
                  G7
más amable, más humano, menos raro.

Cm
¡Tú!

  Gmaj7                               G9
e|---3--2-2-2-2-2-2|---3--2-2-2-2-2-2|---5--3-3-3-0-0--|---5--3-3-3-0-0--|
B|--3----3---3---3-|--3----3---3---3-|--3----3---3---3-|--3----3---3---3-|
G|-0---------------|-0---------------|-0---------------|-0---------------|
D|-----------------|-----------------|-----------------|-----------------|
A|-----------------|-----------------|-----------------|-----------------|
E|3----------------|3----------------|3----------------|3----------------|

  Gmaj7                               G9
e|---3--2-2-2-2-2-2|---3--2-2-2-2-2-2|---5--3-3-3-0-0--|---5--3-3-3-0-0--|
B|--3----3---3---3-|--3----3---3---3-|--3----3---3---3-|--3----3---3---3-|
G|-0---------------|-0---------------|-0---------------|-0---------------|
D|-----------------|-----------------|-----------------|-----------------|
A|-----------------|-----------------|-----------------|-----------------|
E|3----------------|3----------------|3----------------|3----------------|
¡Qué bonito el mar! cuando lo miro a tu lado olvdo las pateras,
las mareas negras, los halijos incautados,

  Gmaj7                               G9
e|---3--2-2-2-2-2-2|---3--2-2-2-2-2-2|---5--3-3-3-0-0--|---5--3-3-3-0-0--|
B|--3----3---3---3-|--3----3---3---3-|--3----3---3---3-|--3----3---3---3-|
G|-0---------------|-0---------------|-0---------------|-0---------------|
D|-----------------|-----------------|-----------------|-----------------|
A|-----------------|-----------------|-----------------|-----------------|
E|3----------------|3----------------|3----------------|3----------------|
las playas donde se dejan morir las ballenas...
y este infumable plato combinado.


G
Una mano pide el cielo,
   D
la otra en el cajón del pan.
Bm7
Hay manchas de grasa
              B7
de llanto, de tinta
estoy harto de tanto frotar.

Cm7                        Gm
Yo que doy tan guapa y tan lista
            D                         Ab      Eb
yo que te merezco un príncipe a un dentista, ¡Yo!
Cm                 Gm
me quedo aqui a tu lado
                D
y el mundo te parece
                  G7
más amable, más humano, menos raro.

Cm7                        Gm
Yo que doy tan guapa y tan lista
            D                         Ab      Eb
yo que te merezco un príncipe a un dentista, ¡Yo!
Cm                 Gm
me quedo aqui a tu lado
                D
y el mundo te parece
                  G7
más amable, más humano, menos raro.

Cm7
Y aunque me engañe y me diga que no
Gm
siempre estás tú detrás de mí mejor yo.
Cm7
Que aunque no soy pa' ti que soy pa' contigo.
Gm
El mundo es tan redondo como el ?pirsin? de tu ombligo.
Cm7                                 Eb
La cosa se pone dura sin tu aliento siento con amargura
                           Gm
que estoy perdiendo la frescura
                          D                 D7
que se vuelve frío sin tu calor y sin droga dura, que tu...

Cm7                         Gm
Tú que eres tan guapa y tan lista.
            D                         Ab      Eb
Tu que te mereces un príncipe a un dentista, ¡Tu!
Cm             Gm
te quedas a mi lado
                D
y el mundo me parece
                  G7
más amable, más humano, menos raro.

Cm7                         Gm
Tú que eres tan guapa y tan lista.
            D                         Ab      Eb
Tu que te mereces un príncipe a un dentista, ¡Tu!
Cm             Gm
te quedas a mi lado
                D
y el mundo me parece
                  G7
más amable, más humano, menos raro.

Cm
¡Tú!

            
            
Suggest correction
Creating personal tab
Creating personal tab
You can edit any tab online and save it as your Personal.

You can edit, replace or remove any tab part or add personal notes – all changes will be seen only by you.

Personal tabs can be accessed anytime from any device, even offline.
Learn more »
Give kudos to tab author, rate the tab!
1 2 3 4 5
comments
print report bad tab
1 comment total.
0 reply
ignaciomendez 1,468 Jun 06, 2016 10:17 PM

Chords are wrong. Main chords are D to G. Then in the Bridge the song goes from Cm to Dm and then Gm. I will make a new tab

guest
Wanna post a correction for this tab? Suggest correction