Oops, an error
Loading. Please wait.

Miércoles De Ceniza tab

version 1
version 1

Whole song

Interactive

127 views 3 this week
no commentswrite comment
1 2 3 4 5
3 more votes to show rating
add to favorites
×
Save as Personal and add changes to this tab that will be seen only by you. Learn more ›
×
You can save this tab as Personal to edit and correct it or add notes. All changes will be seen only by you. Learn more »
launch autoscroll
font size
0
reset
how to read this tab
guitar tuner
edit
Autoscroll
slow
fast
+/-
esc
set tempo
stop
Caifenes - Miercoles de Ceniza
Parece dificil pero no lo es...  solo me gustar aclarar los Tabs
No olviden votar por la trancripcion..OK
Intro guitarra:

1|--------------------------------|-------|----------------------------|
2|-----------5---6-5----6-5-3--   |-------|-----------5---6-5----6-5-3-|
3|--4---5-7---------7-----------  |--5-4--|---4---5-7--------7---------|
4|--------------------------------|-------|----------------------------|
5|--------------------------------|-------|----------------------------|
6|--------------------------------|-------|----------------------------|

Te acuerdas cuando jugabas con el
Siempre desde los arboles se miraban
Solo con el podias hablar
Solo con el podias llorar

D - rasgueo hacia arriba

Ahora es un hueso        Enterrado
1|------------------------------|
2|--8^----8^^-----8^---8^---6^^-|
3|--10^--10^^----10^--10^---8^^-|
4|------------------------------|
5|------------------------------|
6|------------------------------|

D - rasgueo hacia arriba

Olvidadoooo......
1|------------------------------------------------------|
2|------3-----3------3-----3----------------------------|
3|--4-5---4-5---4-5---4-5----------2-----2------2-----2-|
4|------------------------------3-5---3-5---3-5---3-5---|
5|------------------------------------------------------|
6|------------------------------------------------------|

Olvidadoooo......
1|------------------------------------------------------|
2|------3-----3------3-----3----------------------------|
3|--4-5---4-5---4-5---4-5----------2-----2------2-------|
4|------------------------------3-5---3-5---3-5---5-3-5-|
5|------------------------------------------------------|
6|------------------------------------------------------|


Intro guitarra:

1|--------------------------------|-------|----------------------------|
2|----------5---6-5----6-5-3------|-------|-----------5---6-5----6-5-3-|
3|--4---5-7---------7-------------|--5-4--|---4---5-7--------7---------|
4|--------------------------------|-------|----------------------------|
5|--------------------------------|-------|----------------------------|
6|--------------------------------|-------|----------------------------|

    Te acuerdas cuando hablaban de la muerte (sonido de teclado al fondo)
1|--h17--h17--h17--h17--h17--h17--h17--h17--h17--h17--h17--h17--|
2|--------------------------------------------------------------|
3|--------------------------------------------------------------|
4|--------------------------------------------------------------|
5|--------------------------------------------------------------|
6|--------------------------------------------------------------|

    Decian que era un futuro interminable
1|--h15--h15--h15--h15--h15--h15--h15--h15--h15--h15--h15--h15--|
2|--------------------------------------------------------------|
3|--------------------------------------------------------------|
4|--------------------------------------------------------------|
5|--------------------------------------------------------------|
6|--------------------------------------------------------------|

D-rasgueo hacia arriba

1|--h17--h17--h16--h16--h16--h15--h15--h14--h17--h17--h16--h16--h16--h15--h15--h14-|
2|---------------------------------------------------------------------------------|
3|---------------------------------------------------------------------------------|
4|---------------------------------------------------------------------------------|
5|---------------------------------------------------------------------------------|
6|---------------------------------------------------------------------------------|

Ahora que pasa ¿donde te encuentro?
1|------------------------------|
2|--8^----8^^-----8^---8^---6^^-|
3|--10^--10^^----10^--10^---8^^-|
4|------------------------------|
5|------------------------------|
6|------------------------------|

Te acuerdas cuando se convertian en dioses
1|-------------------------------------------------|
2|--8---9^---7-7-----10p9--9--8--------------------|
3|--10-10^---9-9-----------11-10------------10--8--|
4|--------------------------------------13--12--10-|
5|--------------------------------------15---------|
6|-------------------------------------------------|

Decian 	que nada los iba a separar
1|-------------------------------------------------|
2|--8---9^---7-7-----10p9--9--8--------------------|
3|--10-10^---9-9-----------11-10------------10--8--|
4|--------------------------------------13--12--10-|
5|--------------------------------------15---------|
6|-------------------------------------------------|

D - rasgueo hacia arriba

Ahora es un hueso enterrado
1|--------------------------------|
2|--8^----8^^------8^----8^---6^^-|
3|--10^--10^^-----10^---10^---8^^-|
5|--------------------------------|
6|--------------------------------|

Olvidadoooo...
1|------------------------------------------------|
2|---8^---8^^---------------8---------------------|
3|--10^--10^^---9h10p9h10h11--12-14h15---12-14-12-|
4|------------------------------------------------|
5|------------------------------------------------|
6|------------------------------------------------|

En un miercoles de ceniza
En un miercoles de ceniza
En un miercoles de ceniza
En un miercoles de ceniza

Riff guitarra (x7) :
1|-----------------------------------------------------------|
2|--10^--10-8--8-10^--10^-8----10^--10-9-8---8-10^--10^--9-8-|
3|-----------9----------------------------10-----------------|
4|-----------------------------------------------------------|
5|-----------------------------------------------------------|
6|-----------------------------------------------------------|

*Solo guitarra: no lo pude sacar todo pero sigo intentando...ok

1|--12-11-10-13-?
2|--------------?
3|--------------?
4|--------------?
5|--------------?
6|--------------?

Dudas, comentarios,correcciones o avances que he hecho en el solo:

Ivan Castro
Tauroth@
Cali, Toro, norte del Valle o Popayan-Colombia

            
            
Suggest correction
Creating personal tab
Creating personal tab
You can edit any tab online and save it as your Personal.

You can edit, replace or remove any tab part or add personal notes – all changes will be seen only by you.

Personal tabs can be accessed anytime from any device, even offline.
Learn more »
Give kudos to tab author, rate the tab!
1 2 3 4 5
comments
print report bad tab
guest
Wanna post a correction for this tab? Suggest correction