Oops, an error
Loading. Please wait.

Estás Dormida tab

version 1
version 1

Whole song

Interactive

160 views 3 this week
no commentswrite comment
1 2 3 4 5
2 more votes to show rating
add to favorites
×
Save as Personal and add changes to this tab that will be seen only by you. Learn more ›
×
You can save this tab as Personal to edit and correct it or add notes. All changes will be seen only by you. Learn more »
launch autoscroll
font size
0
reset
how to read this tab
guitar tuner
edit
Autoscroll
slow
fast
+/-
esc
set tempo
stop
 INTRO:
   
            B
E-----------2--2--2----2--2--2--2--2------------------------------
B-----------4--4--4----2--5--5--5--4------------------------------
G-----------4--4--4----4--4--4--4--4------------------------------
D-----------4--4--4----4--4--4--4--4------------------------------
A-----------2--2--2----2--2--2--2--2------------------------------
E-----------2--2--2----2--2--2--2--2------------------------------

VERSO I    E          A              E
         CADA    SEGUNDO    SIN   TU    PIEL              
E----------0----------0--------------0--------------------------
B----------0----------2--------------0--------------------------
G----------1----------2--------------1--------------------------
D----------2----------2--------------2--------------------------
A----------2----------0--------------2--------------------------
E----------0----------0--------------0--------------------------

RIFF.1
E--------------0--2--4---2--0--------------------------------
B------2---4-------------------4---2-------------------------
G------------------------------------------------------------
D------------------------------------------------------------
A------------------------------------------------------------
E------------------------------------------------------------
        C#m
         ME    VA   SECANDO   LA   VOZ
E--------4----------------------------------------------
B--------5-----------------------------------------------
G--------6-----------------------------------------------
D--------6-----------------------------------------------
A--------4-----------------------------------------------
E--------4-----------------------------------------------

 E             A            E             RIFF.1
CADA   LADRIDO   EN  TU  PARED
C#m
VA         MARCHITANDO    MI AMOR

        G#m                             F#m
      Y    ESTOY   BUSCANDOTE   A  CIEGAS

E--------4--------------------------------2-------------
B--------4--------------------------------2--------------
G--------4--------------------------------2--------------
D--------6--------------------------------4--------------
A--------6--------------------------------4--------------
E--------4--------------------------------2--------------

        G#m                         F#m  F#m  G#m  A
      EN   UN  SEPULCRO  SIN  PUERTAS

E--------4---------------------------2----2-----4---5---
B--------4---------------------------2----2-----4---5----
G--------4---------------------------2----2-----4---6----
D--------6---------------------------4----4-----6---7----
A--------6---------------------------4----4-----6---7----
E--------4---------------------------2----2-----4---5----

 A                                   C#m
 Y  AUNQUE  TE  ESCONDAS  TODO  EL  DIA

          C      B                            A
   LA   VERDAD  YO   SE  BIEN  QUE  ESTAS   DORMIDA  

E--------3-------2-----------------------------0-------
B--------5-------4-----------------------------2--------
G--------5-------4-----------------------------2--------
D--------5-------4-----------------------------2--------
A--------3-------2-----------------------------0--------
E--------3-------2-----------------------------0--------

                                   C#m           C
   CON  LOS  RECUERDOS  DE  OTRA  VIDA  DONDE   YO


      B
     UH    UH   UH...            INTRO...
E-----2------------------  
B-----4------------------
G-----4------------------
D-----4------------------
A-----2------------------
E-----2------------------

 E         A            E       RIFF.1
LOS DIAS PASAN Y AQUI ESTOY
C#m
JUNTO A TU TUMBA SIN SOL
E          A           E       RIFF.1
SI TU TE VAS A DONDE VOY
C#m
NO ME OBEDECEN MIS PIES

G#m                     F#m
QUIEREN QUE VAYA AL DESIERTO 
G#m                     F#m F#m G#m A
QUIEREN QUE BAJE AL INFIERNO

A                             C#m      C      
Y AUNQUE TE ESCONDAS TODO EL DIA LA VERDAD...
 B                      A                               C#m
YO SE BIEN QUE ESTAS DORMIDA CON LOS RECUERDOS DE OTRA VIDA
       C      B             INTRO
DONDE YO..  UH UH UH...

SOLO DE SAX: A,C#m,C Y B.

A                             C#m      C      
Y AUNQUE TE ESCONDAS TODO EL DIA LA VERDAD...
 B                      A                               C#m
YO SE BIEN QUE ESTAS DORMIDA CON LOS RECUERDOS DE OTRA VIDA
       C      B             INTRO
DONDE YO..  UH UH UH...               (Y FINALIZA EN C#m)

            
            
Suggest correction
Creating personal tab
Creating personal tab
You can edit any tab online and save it as your Personal.

You can edit, replace or remove any tab part or add personal notes – all changes will be seen only by you.

Personal tabs can be accessed anytime from any device, even offline.
Learn more »
Give kudos to tab author, rate the tab!
1 2 3 4 5
comments
print report bad tab
guest
Wanna post a correction for this tab? Suggest correction