Oops, an error
Loading. Please wait.

Tú Estás Más tab

version 2
version 2

Whole song

Interactive

by Canseco
40 views 3 this week
no commentswrite comment
1 2 3 4 5
3 more votes to show rating
add to favorites
×
Save as Personal and add changes to this tab that will be seen only by you. Learn more ›
×
You can save this tab as Personal to edit and correct it or add notes. All changes will be seen only by you. Learn more »
launch autoscroll
font size
0
reset
how to read this tab
guitar tuner
edit
Autoscroll
slow
fast
+/-
esc
set tempo
stop
Tu estas mas /Canseco
Aclaro esta no es la versión que muchos conocen por el disco
?El tiempo y la ciudad? ya que esta va mas rapida


Intr.:

1-------------------------3-------        (esto se toca
2-----------------------3---------        4 veces)
3-----------------0---0-----------        y luego
4-------0-------2---2-------------        LA siguiente
5-----2-------3-------------3-2-0-        nota
6-3-3-----0-0---------------------   Cadd9


        G/B         Cadd9
Y si te digo lo que pienso
        G/B              Cadd9
Que tú eres todo lo que quiero
        G/B              Cadd9
Y no me importa quien lo sepa
        G/B               Cadd9
Y ya va un mes pero quien cuenta
G/B       Cadd9
La ra la rala
Am            Bm
La ra la ra la ra
          G/B           Cadd9
Un juego mas hay en tu casa
         G/B           Cadd9
Y las apuestas hoy se pagan
        G/B             Cadd9
Y una historia en cada carta
        G/B             Cadd9
Y ya me voy quita esa cara
        G/B                 Cadd9
Y si tú quieres volvemos a empezar
             Am               Bm
Pues yo mil veces te vuelvo a conocer
        G/B          Cadd9
Que no sabes que no duermo
     Am              Bm
Por pensar en regresar y nunca
  G/B              Cadd9
Nunca volverte a perder
  Am                Bm
Nunca volverte a perder

1-------------------------3-------        (esto se toca
2-----------------------3---------         4 veces) y luego
3-----------------0---0-----------         LA siguiente
4-------0-------2---2-------------         nota
5-----2-------3-------------3-2-0-
6-3-3-----0-0---------------------  Cadd9


        G/B                 Cadd9
Y si tú quieres volvemos a empezar
             Am               Bm
Pues yo mil veces te vuelvo a conocer
        G/B          Cadd9
Que no sabes que no duermo
     Am              Bm
Por pensar en regresar


PUENTE    con Cadd9

        G/B                 Cadd9
Y si tú quieres volvemos a empezar
             Am               Bm
Pues yo mil veces te vuelvo a conocer
        G/B          Cadd9
Que no sabes que no duermo
     Am              Bm
Por pensar en regresar y nunca
  G/B              Cadd9
Nunca volverte a perder
  Am                Bm
Nunca volverte a perder


Aquí acaba en G/B no tengo el ultimo punteo pero espero
y en el siguiente mes lo pueda  ya mandar


los acordes son

G/B                               Cadd9
1-----3--------         1-------3----------
2-----3--------         2-------3----------
3--------------         3------------------
4--------------         4-----2------------
5---2----------         5-------3----------
6-----3--------         6------------------

Am                           Bm
1--------------        1--2-----------
2--1-----------        2-----3--------
3----2---------        3-------4------
4----2---------        4-------4------
5--------------        5--2-----------
6--------------        6--2-----------

            
            
Suggest correction
Creating personal tab
Creating personal tab
You can edit any tab online and save it as your Personal.

You can edit, replace or remove any tab part or add personal notes – all changes will be seen only by you.

Personal tabs can be accessed anytime from any device, even offline.
Learn more »
Give kudos to tab author, rate the tab!
1 2 3 4 5
comments
print report bad tab
guest
Wanna post a correction for this tab? Suggest correction