Oops, an error
Loading. Please wait.

Tú Estás Más tab

version 3
version 3

Whole song

Interactive

by Canseco
31 views 1 this week
no commentswrite comment
1 2 3 4 5
3 more votes to show rating
add to favorites
×
Save as Personal and add changes to this tab that will be seen only by you. Learn more ›
×
You can save this tab as Personal to edit and correct it or add notes. All changes will be seen only by you. Learn more »
launch autoscroll
font size
0
reset
how to read this tab
guitar tuner
edit
Autoscroll
slow
fast
+/-
esc
set tempo
stop
-Intro:


e|----------------------3------------
b|----------------------3------------
g|----------------------0------------
d|---------0--------0---2------------    (x3)
a|-----0h2------0h2---3-3---3p2--0---
E|---3--------0---------0------------

e|--------------------3--3-3-3-3-3---
b|------------------3-3--3-3-3-3-3---
g|------------------0-0--0-0-0-0-0---
d|---------0--------0-2--2-2-2-2-2---
a|-----0h2------0h2---3--3-3-3-3-3---
E|---3--------0----------0-0-0-0-0---


        G    Em7      Cadd9
y si te digo lo que pienso
            G    Em7       Cadd9
que tu eres todo lo que quiero
          G     Em7       Cadd9
y no me importa quien lo sepa
          G      Em7     Cadd9
ya va un mes pero quien cuenta

Em7   Dsus4 Cadd9
ooohh ooohh uuuhh ooohh
Em7   Dsus4 Cadd9
ooohh ooohh ooohh ooohh ooohh ooohh


         G      Em7      Cadd9
un juego mas aqui en tu casa
         G       Em7   Cadd9
y las apuestas hoy se pagan
          G        Em7   Cadd9
y una historia en cada carta
       G     Em7     Cadd9
ya me voy quita esa cara


           Em7            Cadd9
y si tu quieres volvemos a empezar
           G                    Dsus4
pues yo mil veces te vuelvo a conocer
          Em7        Cadd9
y que no sabes que no duermo?
       G            Dsus4
por pensar en regresar y nunca...
                     Cadd9                   Dsus4
nunca volverte a perder, nunca volverte a perder...


-Repetir Intro


           Em7            Cadd9
y si tu quieres volvemos a empezar
           G                    Dsus4
pues yo mil veces te vuelvo a conocer
          Em7        Cadd9
y que no sabes que no duermo
       G            Dsus4
por pensar en regresar

           Em7            Cadd9
y si tu quieres volvemos a empezar
           G                    Dsus4
pues yo mil veces te vuelvo a conocer
          Em7        Cadd9
y que no sabes que no duermo?
       G            Dsus4
por pensar en regresar y nunca...
                     Cadd9                   Dsus4
nunca volverte a perder, nunca volverte a perder...


G-Em7-Cadd9 (x6)

1|------------------------------------------
2|------------------------------------------
3|----------7-9-7---------------------------
4|--7h9-9-7-------7-7h9-77-5-7-5-7---------    (x5)
5|------------------------------------------
6|------------------------------------------


1|------------------------------------3-----
2|------------------------------------3-----
3|----------7-9-7---------------------0-----
4|--7h9-9-7-------7-7h9-77-5-7-5-7----------
5|------------------------------------------
6|------------------------------------------


ACORDES:      EADGBe

Cadd9         032033
G             320033
Em7           022033
Dsus4         X00233

            
            
Suggest correction
Creating personal tab
Creating personal tab
You can edit any tab online and save it as your Personal.

You can edit, replace or remove any tab part or add personal notes – all changes will be seen only by you.

Personal tabs can be accessed anytime from any device, even offline.
Learn more »
Give kudos to tab author, rate the tab!
1 2 3 4 5
comments
print report bad tab
guest
Wanna post a correction for this tab? Suggest correction