Oops, an error
Loading. Please wait.

Quien Se Ha Tomado Todo El Vino tab

59 views 1 this week
no commentswrite comment
1 2 3 4 5
3 more votes to show rating
add to favorites
×
Save as Personal and add changes to this tab that will be seen only by you. Learn more ›
×
You can save this tab as Personal to edit and correct it or add notes. All changes will be seen only by you. Learn more »
launch autoscroll
font size
0
reset
how to read this tab
guitar tuner
edit
Autoscroll
slow
fast
+/-
esc
set tempo
stop
Esta es la verdadera intro y base del tema.

e|------------------------------------------------------|
b|------------------------------------------------------|
G|------------------------------------------------------|
D|----2-----2-----2-5-----------------------------------|
A|-0-3---0-3---0-3----3-2-------2-5--2-5----2-3-5-3-2-0-|
E|------------------------5-3-3-----3-----3-------------|


Am
No se que pasa en esta ciudad
Am
no se que pasa no puedo entender
Dm
estoy a punto de morir de sed
Am
por que no encuentro algo para tomar

C            G            Am
Diganme e e solo, quiero saber
C     G                        Am
quieeeen se ha tomado todo el vino (X3)

intro

oye nena me quieres decir
por que no puedo ya calmar mi sed
esta ciudad parece un desierto
y si no hay vino no podemos tocar

C            G            Am
diganmeeee solo quiero saber
C     G                        Am
quieeeen se ha tomado todo el vino (X3)

intro

instrumental acordeón

D|------------------------------------------------|
A|--------------------3------------------------3--|
E|--5-5-3-5-5---5-5-5---5----5-5-3-5-5---5-5-5---5|

D|-------------------3----------------------------|
A|-5-5-3-5---5-5-5-3---5--------------------------|
E|------------------------------------------------|

D|------------------------------------------------|
A|-----3-------------3----------------------------|
E|-5-5---5-5---5-5-5---5--------------------------|

D|------------------------------------------------|
A|--3-3-3-3-3----------3-3-3--3-5-----------------|
E|------------5-3-5-5-----------------------------|

D|------------------------------------------------|
A|----------------3-------------------------------|
E|--3-3-5-5-5-5-5---5-----------------------------|


No se que pasa en esta ciudad
no se que pasa no puedo entender
estoy a punto de morir de sed
por que no encuentro algo para tomar

C            G            Am
diganmeeee solo quiero saber
C     G                        Am
quieeeen se ha tomado todo el vino (X4)

fin.

"No solo que no se nada,
si no que me estoy olvidando lo que sabía."
(Sra Pintos). jajajaja

            
            
Suggest correction
Creating personal tab
Creating personal tab
You can edit any tab online and save it as your Personal.

You can edit, replace or remove any tab part or add personal notes – all changes will be seen only by you.

Personal tabs can be accessed anytime from any device, even offline.
Learn more »
Give kudos to tab author, rate the tab!
1 2 3 4 5
comments
print report bad tab
guest
Wanna post a correction for this tab? Suggest correction