Oops, an error
Loading. Please wait.

Acaba El Fín tab

32 views 1 this week
no commentswrite comment
1 2 3 4 5
3 more votes to show rating
add to favorites
×
Save as Personal and add changes to this tab that will be seen only by you. Learn more ›
×
You can save this tab as Personal to edit and correct it or add notes. All changes will be seen only by you. Learn more »
launch autoscroll
font size
0
reset
how to read this tab
guitar tuner
edit
Autoscroll
slow
fast
+/-
esc
set tempo
stop
Bajo (B) durante todo el tema:

G -----------------------------------------------------
D -----------------------------------------------------
A --6--6--6--6--6--6--6--6--6--6--6--6----6--6---------
E -----------------------------------------------------

Riff (Rg) de la guitarra

E -----------------------------------------
B -----------------------------------------
G -----------------------------------------
D --8--8----8--4--4-----6------7\-8--------
A --6--6----6--0--2P-0--4P-0---5\-6--------
E -----------------------------------------


B×4(4 veces la línea de bajo)-Rg×4

Estribillo: Sobre Rg×4

Miro a través de vos en llamas te ves
Quiero sentir que tu alma transpire
Miro a través de vos en llamas te ves
Entre risas y llanto decides

Rg×2-B×4

       Fuera de cuadro, fuera de enfoque      ciencia y ficción
E ---------------------------------------------------------------------------------
B ---------------------------------------------------------------------------------
G ---------------------------------------------------------------------------------
D ---------------3-------------3---4-----------3------4--4\-6--6--6--6--4--3-------
A --6----4--6--------4---6-----------6---------------------------------------6-----
E -----6---------------------------------------------------------------------------
       La piel Alerta hablas más fuerte olvida quien soy
E --------------------------------------------------------------------------------
B --------------------------------------------------------------------------------
G --------------------------------------------------------------------------------
D ---------------3----------------3---4----------3--4--4\-6--6--6--6--4--3--------
A --6----4--6--------4---6--------------6-----------------------------------6-----
E -----6--------------------------------------------------------------------------
    En    que    sitio acaba el fin,   vuelves    aunque te quieras ir
E -------------------------------------------------------------------------------------
B -------------------------------------------------------------------------------------
G -------------------------------------------------------------------------------------
D ---------------3------------3------4------3--4--4\-6--6--6--6--6--6--6---------------
A --6----4--6-----4---6----------------6-----------------------------------------------
E -----6-------------------------------------------------------------------------------

        A contraluz tu reflejo soy en tus    ojos en tus
E -------------------------------------------------------------------------------
B -------------------------------------------------------------------------------
G -------------------------------------------------------------------------------
D --8--8--8--8--8--8--8--9--9--9--9--9--9--9-11-11-11-11-11-11-11----------------
A -------------------------------------------------------------------------------
E -------------------------------------------------------------------------------
  Ojos  vivo siempre.
E---------------------------------------------------------------------------------
B---------------------------------------------------------------------------------
G---------------------------------------------------------------------------------
D--12-12-12-13-13-13--------------------------------------------------------
A---------------------------------------------------------------------------------
E---------------------------------------------------------------------------------

Rg×2

Estribillo.

Rg×3-B×2

       Distorsionada en          reversa cambia tu voz
E ----------------------------------------------------------------------------
B ----------------------------------------------------------------------------
G ----------------------------------------------------------------------------
D ---------------3--------------3---4--------3--4--4\-6--6--6--6--4--3--------
A --6----4--6------4---6--------------6---------------------------------6-----
E -----6----------------------------------------------------------------------

       Todo acrecienta entras a escena olvida que estoy
E -------------------------------------------------------------------------------
B -------------------------------------------------------------------------------
G -------------------------------------------------------------------------------
D ----------------3------------3---4------------3--4--4\-6--6--6--6--4--3--------
A --6----4--6---------4---6----------6-------------------------------------6-----
E -----6-------------------------------------------------------------------------

    En que       sitio acaba el fin   vuelves   adonde quieres ir
E -----------------------------------------------------------------------------------
B -----------------------------------------------------------------------------------
G -----------------------------------------------------------------------------------
D ---------------3------------3-----4-----3--4--4\-6--6--6--6--6--6--6---------------
A --6----4--6-----4---6---------------6----------------------------------------------
E -----6-----------------------------------------------------------------------------


          Contraluz tu reflejo soy en   tus ojos en tus
E -------------------------------------------------------------------------------
B -------------------------------------------------------------------------------
G -------------------------------------------------------------------------------
D --8--8--8--8--8--8--8--9--9--9--9--9--9--9-11-11-11-11-11-11-11----------------
A -------------------------------------------------------------------------------
E -------------------------------------------------------------------------------

  Ojos miro siempre
E---------------------------------------------------------------------------------
B---------------------------------------------------------------------------------
G---------------------------------------------------------------------------------
D--12-12-12-13-13-13--------------------------------------------------------
A---------------------------------------------------------------------------------
E---------------------------------------------------------------------------------


B×12


          E ------------------------------------------------------------
          B ------------------------------------------------------------
  ×2      G ------6\-7-6-----6\-7-6-----6\-7-6--------------------------
          D --8---7\-8-7--8--7\-8-7--8--7\-8-7--8-7-6-5-4-3-2-1---------
          A --6-----------6----------6----------------------------------
          E ------------------------------------------------------------


Solo de macabre

Estribillo (El riff de guitarra empieza desde: sentir que tu alma?)


        E -----------------------------------
        B -----------------------------------
  ×4    G --------11-11-11-11-11-11----------
        D --11\13-13-13-13-13-13-13----------
        A -----------------------------------
        E -----------------------------------

(Mientras canta lo siguiente repite el punteo anterior)

Miro a través de vos miro a través de vos
Miro a través de vos, miro a través de vos


E ----------------------------------------------------------------------------------
B ----------------------------------------------------------------------------------
G -11-11-11-11-11-11-11-11-11-11-11-11-11-11-11-11-11-11-11-11----------------------
D ----------------------------------------------------------------------------------
A ----------------------------------------------------------------------------------
E ----------------------------------------------------------------------------------

E -----------------------------------------------------------------------------------
B -----------------------------------------------------------------------------------
G -11-11-11-11-11-11-11-11-11-11-11-11-11-11-11-11-11-11-11-11-----------------------
D -----------------------------------------------------------------------------------
A -----------------------------------------------------------------------------------
E -----------------------------------------------------------------------------------

E ----------------------------------------------------------------------------------
B ----------------------------------------------------------------------------------
G -11-11-11-11-11-11-11-11-11-11-11-11-11-11-11-11-11-11-11-11----------------------
D ----------------------------------------------------------------------------------
A ----------------------------------------------------------------------------------
E ----------------------------------------------------------------------------------

Miro a través de vos, miro a través de vos
Miro a través de vos, miro a través de vos


Rg×4

FIN

Bueno loco, costo pero la escribí cualquier sugerencia corrección  o pregunta
Escriban a Dottisexy@hotmail o a Maximilianodotti@yahoo . Saludos para
Toda la gente de merlo. Aguante KtuPQ  y RHCP.

            
            
Suggest correction
Creating personal tab
Creating personal tab
You can edit any tab online and save it as your Personal.

You can edit, replace or remove any tab part or add personal notes – all changes will be seen only by you.

Personal tabs can be accessed anytime from any device, even offline.
Learn more »
Give kudos to tab author, rate the tab!
1 2 3 4 5
comments
print report bad tab
guest
Wanna post a correction for this tab? Suggest correction