Oops, an error
Loading. Please wait.

En Los Sueños bass

85 views 1 this week
no commentswrite comment
1 2 3 4 5
3 more votes to show rating
add to favorites
×
Save as Personal and add changes to this tab that will be seen only by you. Learn more ›
×
You can save this tab as Personal to edit and correct it or add notes. All changes will be seen only by you. Learn more »
launch autoscroll
font size
0
reset
guitar tuner
edit
Autoscroll
slow
fast
+/-
esc
set tempo
stop
Soy Mariano Bria de Jesus Maria-Cba y esta de más decir que me encanta
Catupecu (a mi parecer una de las 3 mejores bandas del momento) y por
eso me puse en la tarea, ardua pero no imposible, de sacar este temaso
de uno de los mejores bajistas argentinos como es Gabriel.


Empieza la viola sola

0:07
Entra el Bajo - A esto Gabriel lo hace con tappin' y es lo más reco
mendable por que suena mejor pero lo pueden hacer pulsando comunmen
te con los dedos.


g-----------------------------------------------------
D--------6_8_6-------6_8_6-------6_8_6--------6_8_6---
A----4__6-----6--4__6-----6--4__6-----6---4__6-----6--
E---4-----------4-----------4------------4------------

 __ son ligados __

0:14
Empieza a cantar el 1º verso


g--------------------------------------------8--
D--------6_8_6-------6_8_6-------6_8_6---88_6---
A----4__6-----6--4__6-----6--4__6-----6--------- (X3)
E---4-----------4-----------4-------------------


g-----------------------------
D--------6_8_6----------------
A----4__6-----6--4__6-6-------
E---4-----------4------6_4_6--


0:38
Estribillo

g--------------------------------------------
D--6-8-10-8-66_8_6-6-8-----------------------
A--------------------------------------------    (X4)
E----------------------9999-8888-6666666666--


El tema para despues del estribo


g---------------------
D---------------------
A---------------------
E----4/-----4/--------


Estos dos Sol# estan en esa parte q se escucha la viola sola y hay q
arrastrarlos para arriba del mastil.


1:19
Segundo Verso


g----------------------------------------------8--
D--------6_8_6-------6_8_6-------6_8_6-----88_6---
A----4__6-----6--4__6-----6--4__6-----6-----------
E---4-----------4-----------4---------------------


g-----------------------------------------------------
D--------6_8_6-------6_8_6-------6_8_6--------6_8_6---
A----4__6-----6--4__6-----6--4__6-----6---4__6-----6--
E---4-----------4-----------4------------4------------


g-----------------------------------------------------
D--------6_8_6-------6_8_6-------6_8_6----------------
A----4__6-----6--4__6-----6--4__6-----6--4__6---------
E---4-----------4-----------4-----------4----4_6-4_6--


1:39
Estribillo

g-------------------------------------------
D--6-8-10-8-66_8_6-6-8----------------------
A-------------------------------------------    (X4)
E----------------------9999-8888-666666666--


2:07
Otra vez para pero los Sol# son mas seguidos esta vez

g-------------------------------------------
D-------------------------------------------
A-------------------------------------------
E--16/--16/--16/--16/--16/--16/--16/--16/---

/Deslizar y apagarlo para volver con otro.


2:19
Bata y Voz - Silencio en el bajo -


2:47
Ultimo Estribillo

g---------------------------------------------8_6-----
D--------6_8_6-------6_8_6-------6_8_6---8-6------6_8-
A----4__6-----6--4__6-----6--4__6-----6-----6---------
E---4-----------4-----------4-------------------------

g-------------------------------------------
D--6-8-10-8-66_8_6-6-8----------------------
A-------------------------------------------
E----------------------9999-8888-666666666--

g---------------------------------------------8_7-----
D--------6_8_6-------6_8_6-------6_8_6---88-6-----8_6-
A----4__6-----6--4__6-----6--4__6-----6---------------
E---4-----------4-----------4-------------------------

g-------------------------------------------
D--6-8-10-8-66_8_6-6-8----------------------
A-------------------------------------------
E----------------------9999-8888-666666666--


3:14
Final
"En los sueños..."

g-------------------------------------------------------------------
D-------------------------------------------------------------------
A--4444-3333-111111111__4444-3333-1111111111__4444-3333-11111111111-
E-------------------------------------------------------------------

g------------------------------------------------
D------------------------------------------------
A-/1616161616__151515151515__131313131313131313--
E------------------------------------------------

g------------------------
D------------------------
A--4444-3333-11111111----
E---------------------4*-   *Nota final -dejar sonando-


Eso es basicamene todo el tema, si notan alguna otra cosa o hay algo q
no suena del todo bien traten de sacarlo ustedes para adiestrar más el
oido como estoy tratando de hacer yo, con tiempo, sacando estos temas.


--------------------- MARIANOROCKEN@ ----------------------

            
            
Suggest correction
Creating personal tab
Creating personal tab
You can edit any tab online and save it as your Personal.

You can edit, replace or remove any tab part or add personal notes – all changes will be seen only by you.

Personal tabs can be accessed anytime from any device, even offline.
Learn more »
Give kudos to tab author, rate the tab!
1 2 3 4 5
comments
print report bad tab
guest
Wanna post a correction for this tab? Suggest correction