Oops, an error
Loading. Please wait.

Héroes Anónimos bass

version 3
version 3

Whole song

49 views 1 this week
no commentswrite comment
1 2 3 4 5
3 more votes to show rating
add to favorites
×
Save as Personal and add changes to this tab that will be seen only by you. Learn more ›
×
You can save this tab as Personal to edit and correct it or add notes. All changes will be seen only by you. Learn more »
launch autoscroll
font size
0
reset
guitar tuner
edit
Autoscroll
slow
fast
+/-
esc
set tempo
stop
este tema es bastante facil, y una ves mas es todo con 
púa y los agudos del bajo al palo, cosa de q el bajo suene
 bien desarreglado

intro: no estoy seguro, lo q vi en vivo es el bajo solo ,
pero en el video, (q es de estudio me parece) creo q el 
bajo acompaña a la batería. igual qeda bien:
 esto va bien rápido:

1-----------------------------------------------------------------------
2---------------------------------------------------------------------
3--01-22222222202222222022222222202222222022222222--------------------
4---------------------------------------------------------------------

1-----------------------------------------------------------------------
2-------------------------------------------------------------------------
3-02222222222222/14-14-14-14-1414(ds)/2----------------------------------
4--------------------------------------------------------------------------

aca empiesa junto con la guitarra, pero todavia no canta:

1----------------------------------------------------------------------------
2-----------------------------------------------------------------------------
3--2-2-2-2-2-2-2-2-2-2-2-2-2-2-2-2-2--2/14-14-14-14-1414(ds)/2--------------
4-----------------------------------------------------------------------------

Ahora si: 'estamos atrapados en la misma red...'

1-------------------------------------------------------
2-------------------------------------------------------
3-2-2-2-2-2-2--2-2-2-2--2-2--2-2--2--2-2-2-2-----------
4-------------------------------------------------------

'viajando por un laberinto...'

1------------------------------------
2-----------------------------------
3-----------------------------------
4---2-22-22-2--0-0000-0-0-0--

todas las estofas así, exepto el estribillo:

'todos somos' 
1---------------------------
2--------------------------
3-------------------------
4----0-0000-0-0-00-0---

'heroes amonimos'
'peleando con el corazon'
1------------------------------------
2-------------------------------------
3--22-22-22-22-22-22-22-22-----
4------------------------------------

'guerreros                en este lugar...'
'compartiendo tanta       soledad'
1------------------------------------------------
2-------------------------------------------------
3--------------------------------------------------
4--1(ds)--3(ds)---------2(ds)--5(ds)----------

solo de bajo: (bien fuerte y rápido con la púa)

1----------------------------------------------------------------------
2------------------------------------------------------------------------
3--------5553-3h5---------7775-5h7------5553-3h5---------7775-5h7-----
4--5(ds)-----------7(ds)-----------5(ds)-----------7(ds)------------5---

1-------------------------------------------------------
2--------------------------------------------------------
3-----------0/12-1212-121212(ds)-12/2--------------
4-5-5-5-5---------------------------------------------

aca va el solo de guitarra: 

1---------------------------------------------------------
2--------------------------------------------------------               
3---2-22-22-22-22-2----------------------------------              x2
4-----------------------2-22-22-2-0-00-00-0-00-----

aca se frena despues del solo de guitarra y va un puente:

1-------------------------------------------------------------------------
2------------------------------------------------------------------------
3--------------------------------------------0/14-14-14-1414141414(ds)/2--
4---0-00-00000-00-00000-00-00000-0-0-0-0-0-0------------------------------

despues de esto van dos estrofas mas y varias veces mas el estribillo hasta
el final q hace asi:

1----------------------------------------------
2--------16--------16---------18---------18--
3-----16---16---16----16---16----16----16---16--
4--14-------------------------------------------

1----------------------------------------------
2---16---------16---------18--------16---------16
3-16---16---16----16----16---16---16---16(ds)-16-
4-------------------------------------------------

esto es todo, faltan un par de arreglos q hace gaby en vivo
o como a veces q mete mucho wa wa, pero me copa mas asi 
espero lo entiendan, saludos a todos los heroes anónimos
y a todo el grupo campamento de pérez, jajajjajaajjaja
estoy re al pedo a jjajajajaja nos vemos
aguante bob esponja, eoy, arbol
carajo, cabezones, y smashing pumpkins!!!!!!! 100% antisocial
rock alternativo al palo ( haciendo mosh en la luna) a 160 cm del piso!!!

para correcciones, puteadas, confeciones, peticiones,amenazas de muerte,
conspiraciones, contactos del 3º tipo, reuniones alienigenas, etc.
 este es mi mail: el_teta69@
aguante catupe!!!!!!!!!!!!!100% alterno

            
            
Suggest correction
Creating personal tab
Creating personal tab
You can edit any tab online and save it as your Personal.

You can edit, replace or remove any tab part or add personal notes – all changes will be seen only by you.

Personal tabs can be accessed anytime from any device, even offline.
Learn more »
Give kudos to tab author, rate the tab!
1 2 3 4 5
comments
print report bad tab
guest
Wanna post a correction for this tab? Suggest correction