Oops, an error
Loading. Please wait.

La Chaleur Tab

version 1
version 1

Whole song

Interactive

7 views 3 this week
no commentswrite comment
1 2 3 4 5
3 more votes to show rating
add to favorites
launch autoscroll
font size
0
reset
how to read this tab
guitar tuner
Autoscroll
slow
fast
+/-
esc
set tempo
stop
Help us to improve Ultimate-Guitar.com Take our survey!
×
Author
Difficulty
newg [tm] 45,864
intermediate
--------------------------------------------------------------------------------------------------------------
                                       Noir Désir  - La Chaleur
--------------------------------------------------------------------------------------------------------------

Album : Du ciment sous les plaines (1991)
Tempo : 152
E-mail: gwendal.mollo@orange.fr
Tabbed by: newg

Plus d'info avec mon fichier guitar pro/powertab

Guitare 1 :

[Verse 1&2]
    E5                                           E5                    C5          D5 
e|--0----0--0--0--0--0----0-----0--0--0--0--0--|--0----0--0--0--0--0---0--0--0--0--0--0--0--0--|
B|--0----0--0--0--0--0----0-----0--0--0--0--0--|--0----0--0--0--0--0---0--0--0--0--0--0--0--0--|
G|--9----9--9--9--9--9----9-----9--9--9--9--9--|--9----9--9--9--9--9---5--5--5--5--7--7--7--7--|
D|--9----9--9--9--9--9----9-----9--9--9--9--9--|--9----9--9--9--9--9---5--5--5--5--7--7--7--7--|
A|--7----7--7--7--7--7----7-----7--7--7--7--7--|--7----7--7--7--7--7---3--3--3--3--5--5--5--5--|
E|--0---------------------0--------------------|--0--------------------------------------------| x7


    E5                                           E5                    D5 
e|--0----0--0--0--0--0----0-----0--0--0--0--0--|--0----0--0--0--0--0---0--0--0--0--0--0--0--0--|
B|--0----0--0--0--0--0----0-----0--0--0--0--0--|--0----0--0--0--0--0---0--0--0--0--0--0--0--0--|
G|--9----9--9--9--9--9----9-----9--9--9--9--9--|--9----9--9--9--9--9---7--7--7--7--7--7--7--7--|
D|--9----9--9--9--9--9----9-----9--9--9--9--9--|--9----9--9--9--9--9---7--7--7--7--7--7--7--7--|
A|--7----7--7--7--7--7----7-----7--7--7--7--7--|--7----7--7--7--7--7---5--5--5--5--5--5--5--5--|
E|--0---------------------0--------------------|--0--------------------------------------------|

[Chorus]
    D
e|--------------------------------------------------|
B|--7--7--7--7--7--7--7--7--7--7--7--7--7--7--7--7--|
G|--7--7--7--7--7--7--7--7--7--7--7--7--7--7--7--7--|
D|--7--7--7--7--7--7--7--7--7--7--7--7--7--7--7--7--|
A|--5--5--5--5--5--5--5--5--5--5--5--5--5--5--5--5--|
E|--------------------------------------------------| x3

    C                       G
e|----------------------------------------------------------|
B|--5--5--5--5--5--5--5--5--12--12--12--12--12--12--12--12--|
G|--5--5--5--5--5--5--5--5--12--12--12--12--12--12--12--12--|
D|--5--5--5--5--5--5--5--5--12--12--12--12--12--12--12--12--|
A|--3--3--3--3--3--3--3--3--10--10--10--10--10--10--10--10--|
E|----------------------------------------------------------| 

[Verse 3]

    Em                       C     D
e|--------------|---------x--0--x--2----|
B|--------------|---------x--1--x--3----|
G|-------0L-----|-(0)-----x--0--x--2----|
D|-------2L-----|-(2)-----x--2--x--0----|
A|-------2L-----|-(2)--------3----------|
E|--0-----------|-(0)-------------------| X9

[Break]
e|----------------|
B|----------------|
G|--9-------------|
D|--9-------------|
A|--7-------------|
E|----------------|

[Bridge]
e|--------------------|--------------------|
B|------------5-------|--------------------|
G|--------------------|--------4-----------|
D|--------------------|--------------------|
A|--------------------|--------------------|
E|--0----0------------|-0--0---------------| x4

[Outro]
e|----------------|
B|----------------|
G|--9-------------|
D|--9-------------|
A|--7-------------|
E|----------------|





Guitare 2 :

[Solo 1]
e|-------|----------|-------|----------|-------|---------------------|---------------|
B|-------|----------|-------|----------|-------|---------------------|---------------|
G|--12L--|--12-12s--|--9L---|--9--9s---|--12L--|--12----11s12s12-----|---------------|
D|--12L--|--12-12s--|--9L---|--9--9s---|--12L--|--12----11s12s14-----|--14-12L12-----|
A|-------|----------|-------|----------|-------|---------------------|--14-12L12-----|
E|-------|----------|-------|----------|-------|---------------------|---------------|
                                                                             
----------------------------|-------|-------|
----------------------------|-------|-------|
----------------------------|-------|-------|
--14-12-12-------12---------|--14L--|--14---|
--14-12-12-12----12---------|--14L--|--14---|
----------------------------|-------|-------|



[Solo 2]                                                                           
e|-------|----------|----------------------------|
B|-------|----------|----------------------------|
G|--12L--|--12------|----------------------------|
D|--12L--|--12-12s--|--14----------14L14L14L-----|
A|-------|-----12s--|--14L---------14-14-14L-----|
E|-------|----------|----------------------------|

         
-------|----------------------------|----------------------------|
-------|--22s17-------22s17---------|--22s17-------22s17---------|
-------|----------------------------|----------------------------|
--14---|----------------------------|----------------------------|
--14---|----------------------------|----------------------------|
-------|----------------------------|----------------------------|

  
----------------------------|-------|
--24s19-------24------------|--24---|
--------------23------------|--23---|
----------------------------|-------|
----------------------------|-------|
----------------------------|-------|


[Bridge]
e|--------------------|--------------------|
B|-----------4h5b-----|--------------------|
G|--------------------|--------4b----------|
D|--------------------|--------------------|
A|--2----2------------|-2--2---------------|
E|--0----0------------|-0--0---------------| x3

e|--------------------|----------3--3--5--5--6--6--6----|--6--7----|--7L---|--7----|
B|-----------4h5b-----|---------------------------------|----------|-------|-------|
G|--------------------|---------------------------------|----------|-------|-------|
D|--------------------|---------------------------------|----------|-------|-------|
A|--2----2------------|-2--2----------------------------|----------|-------|-------|
E|--0----0------------|-0--0----------------------------|----------|-------|-------|

[Outro]

----------|-------|-------|
-----16L--|--16---|-------|
----------|-------|--16g--|
----------|-------|-------|
----------|-------|-------|
----------|-------|-------|


Suggest correction
Give kudos to tab author, rate the tab!
1 2 3 4 5
comments
print report bad tab
guest
You may want to rate the tab now too:
select rating
Wanna post a correction for this tab? Suggest correction