Oops, an error
Loading. Please wait.
We have an official I Dont Believe In Love tab made by UG professional guitarists. Check out the tab »
×
12,822 views 3 this week
2 commentsread comments
1 2 3 4 5
x 4
add to favorites
×
Save as Personal and add changes to this tab that will be seen only by you. Learn more ›
×
You can save this tab as Personal to edit and correct it or add notes. All changes will be seen only by you. Learn more »
launch autoscroll
font size
0
reset
how to read this tab
guitar tuner
backing track
0:00
0:00
edit
Autoscroll
slow
fast
+/-
esc
set tempo
stop
e-----------------------------------------------------------|
B-------10-----8---------11-------10-----8------------6-----|
G--5/7------7-----10--7--7---5/7------7-----10--7-----------|
D--5/7-----------------------5/7-------------------5-----3--|
A--------------------------------------------------3-----1--|
E-----------------------------------------------------------|

e-----------------------------------------------------------|
B-------10-----8---------11-------10-----8------------6-----|
G--5/7------7-----10--7--7---5/7------7-----10--7-----------|
D--5/7-----------------------5/7-------------------5-----3--|
A--------------------------------------------------3-----1--|
E-----------------------------------------------------------|

            
            
Suggest correction
Creating personal tab
Creating personal tab
You can edit any tab online and save it as your Personal.

You can edit, replace or remove any tab part or add personal notes – all changes will be seen only by you.

Personal tabs can be accessed anytime from any device, even offline.
Learn more »
comments
print report bad tab
2 comments total.
0 reply
Fender_Tele'71 10 Oct 04, 2009 10:14 AM

missing some notes man... good start though i guess

0 reply
sydjoe 10 Jun 01, 2013 01:53 PM

E|--------------------------------------------------0--0-------|
B|-8/10--10--8---6-11---8/10--10--8---6-------5/6---1--1--3----|
G|-5/7---7---7---7-7----5/7---7---7---7-------5-----0--0--3----|
D|-0-0---0---0-0-0-0----0-0---0---0-0-0-0-----5-----------3----|
A|------------------------------------------3-------1-----1----|
E|-------------------------------------------------------------|

guest
You may want to rate the tab now too:
select rating
Wanna post a correction for this tab? Suggest correction