Oops, an error
Loading. Please wait.
We have an official Ace Of Spades tab made by UG professional guitarists. Check out the tab »
×

Ace Of Spades bass

version 6
version 6

Whole song

  • I have been playing this for a while and it seems to fit pretty well.
  • Transcribed from CoverSolutions, video link in tab. Arranged for autoscroll.
43 views 9 this week
no commentswrite comment
1 2 3 4 5
3 more votes to show rating
add to favorites
×
Save as Personal and add changes to this tab that will be seen only by you. Learn more ›
×
You can save this tab as Personal to edit and correct it or add notes. All changes will be seen only by you. Learn more »
launch autoscroll
font size
0
reset
guitar tuner
backing track
0:00
0:00
edit
Autoscroll
slow
fast
+/-
esc
set tempo
stop
About this tab version
Transcribed from CoverSolutions, video link in tab. Arranged for autoscroll. Was this info helpful? Yes No
https://www.youtube.com/watch?v=WbSMc0dttlM

[Intro]
F#|-----------------|-----------------|-----------------|-----------------|
C#|-----------------|-----------------|-----------------|-----------------|
G#|-7---7-7---7-7-7-|-7---7---7---5---|-7---7-7---7-7-7-|-7---7---7---5---|
D#|-----------------|-----------------|-----------------|-----------------|

F#|-----------------|-----------------|------------------|-------------------------|
C#|-----------------|-----------------|------------------|-------------------------|
G#|-7---7-7---7-7-7-|-7---7---7---5---|-7-7-7-7-7/8/9/10/|-11/12/13/14/15/16/17/18-|
D#|-----------------|-----------------|------------------|-------------------------|

F#|-----------------|-----------------|-----------------|-----------------|
C#|-----------------|-----------------|-----------------|-----------------|
G#|-7---7---7-7-7---|-7---7-7---7-5---|-7---7-----7-7---|-7---7-7---7-5---|
D#|-----------------|-----------------|-----------------|-----------------|

F#|-----------------|-----------------|
C#|-----------------|-----------------|
G#|-7---7---7-7-7---|-7---7-7---7-5---|
D#|-----------------|-----------------|

[Verse]
F#|-7---7-----7-7---|-7---7-7---7-7---|-7---7-----7-7---|-7---7-7---7-7---|
C#|-5---5-----5-5---|-5---5-5---5-5---|-5---5-----5-5---|-5---5-5---5-5---|
G#|-----------------|-----------------|-----------------|-----------------|
D#|-----------------------------------|-----------------|-----------------|

F#|-7---7-----7-7---|-7---7-7---7-7---|-7-----7-----7---|---7-------7-----|
C#|-5---5-----5-5---|-5---5-5---5-5---|-5-----5-----5---|---5-------5-----|
G#|-----------------|-----------------|-----------------|-----------------|
D#|-----------------|-----------------|-----------------|-----------------|

[Pre-Chorus]
F#|-----------------|-----------------|-----------------|-----------------|
C#|-----------------|-----------------|-----------------|-----------------|
G#|-7---7---7-7-7---|-7---7-7---7-5---|-7---7---7-7-7---|-7---7-7---7-5---|
D#|-----------------|-----------------|-----------------|-----------------|

F#|-----------------|-----------------|-----------------|-----------------|
C#|-----------------|-----------------|-----------------|-----------------|
G#|-7---7---7-7-7---|-7---7-7---7-5---|-7---7---7-7-7---|-7---7-7---7-5---|
D#|-----------------|-----------------|-----------------|-----------------|

[Chorus]
F#|-7---7-----7-7---|-7---7-7---7-7---|-5---5-----5-5---|-5---5-5---5-5---|
C#|-7---7-----7-7---|-7---7-7---7-7---|-5---5-----5-5---|-5---5-5---5-5---|
G#|-5---5-----5-5---|-5---5-5---5-5---|-3---3-----3-3---|-3---3-3---3-3---|
D#|-----------------|-----------------|-----------------|-----------------|

F#|-----------------|-----------------|-----------------|-----------------|
C#|-----------------|-----------------|-----------------|-----------------|
G#|-7---7---7-7-7---|-7---7-7---7-5---|-7---7---7-7-7---|-7---7-7---7-5---|
D#|-----------------|-----------------|-----------------|-----------------|

F#|-7---7-----7-7---|-7---7-7---7-7---|-5---5-----5-5---|-5---5-5---5-5---|
C#|-7---7-----7-7---|-7---7-7---7-7---|-5---5-----5-5---|-5---5-5---5-5---|
G#|-5---5-----5-5---|-5---5-5---5-5---|-3---3-----3-3---|-3---3-3---3-3---|
D#|-----------------|-----------------|-----------------|-----------------|

F#|-----------------|-----------------|-----------------|-----------------|
C#|-----------------|-----------------|-----------------|-----------------|
G#|-7---7---7-7-7---|-7---7-7---7-5---|-7---7---7-7-7---|-7---7-7---7-5---|
D#|-----------------|-----------------|-----------------|-----------------|

F#|-----------------|-----------------|-----------------|-----------------|
C#|-----------------|-----------------|-----------------|-----------------|
G#|-7---7---7-7-7---|-7---7-7---7-5---|-7---7---7-7-7---|-7---7-7---7-5---|
D#|-----------------|-----------------|-----------------|-----------------|

[Verse]
F#|-7---7-----7-7---|-7---7-7---7-7---|-7---7-----7-7---|-7---7-7---7-7---|
C#|-5---5-----5-5---|-5---5-5---5-5---|-5---5-----5-5---|-5---5-5---5-5---|
G#|-----------------|-----------------|-----------------|-----------------|
D#|-----------------------------------|-----------------|-----------------|

F#|-7---7-----7-7---|-7---7-7---7-7---|-7-----7-----7---|---7-------7-----|
C#|-5---5-----5-5---|-5---5-5---5-5---|-5-----5-----5---|---5-------5-----|
G#|-----------------|-----------------|-----------------|-----------------|
D#|-----------------|-----------------|-----------------|-----------------|

[Pre-Chorus]
F#|-----------------|-----------------|-----------------|-----------------|
C#|-----------------|-----------------|-----------------|-----------------|
G#|-7---7---7-7-7---|-7---7-7---7-5---|-7---7---7-7-7---|-7---7-7---7-5---|
D#|-----------------|-----------------|-----------------|-----------------|

F#|-----------------|-----------------|-----------------|-----------------|
C#|-----------------|-----------------|-----------------|-----------------|
G#|-7---7---7-7-7---|-7---7-7---7-5---|-7---7---7-7-7---|-7---7-7---7-5---|
D#|-----------------|-----------------|-----------------|-----------------|

[Chorus]
F#|-7---7-----7-7---|-7---7-7---7-7---|-5---5-----5-5---|-5---5-5---5-5---|
C#|-7---7-----7-7---|-7---7-7---7-7---|-5---5-----5-5---|-5---5-5---5-5---|
G#|-5---5-----5-5---|-5---5-5---5-5---|-3---3-----3-3---|-3---3-3---3-3---|
D#|-----------------|-----------------|-----------------|-----------------|

F#|-----------------|-----------------|-----------------|-----------------|
C#|-----------------|-----------------|-----------------|-----------------|
G#|-7---7---7-7-7---|-7---7-7---7-5---|-7---7---7-7-7---|-7---7-7---7-5---|
D#|-----------------|-----------------|-----------------|-----------------|

F#|-7---7-----7-7---|-7---7-7---7-7---|-5---5-----5-5---|-5---5-5---5-5---|
C#|-7---7-----7-7---|-7---7-7---7-7---|-5---5-----5-5---|-5---5-5---5-5---|
G#|-5---5-----5-5---|-5---5-5---5-5---|-3---3-----3-3---|-3---3-3---3-3---|
D#|-----------------|-----------------|-----------------|-----------------|

F#|-----------------|-----------------|-----------------|-----------------|
C#|-----------------|-----------------|-----------------|-----------------|
G#|-7---7---7-7-7---|-7---7-7---7-5---|-7---7---7-7-7---|-7---7-7---7-5---|
D#|-----------------|-----------------|-----------------|-----------------|

[Bridge]
F#|-----------------|-----------------|-----------------|-----------------|
C#|-----------------|-----------------|-----------------|-----------------|
G#|-7---7---7-7-7---|-7---7-7---7-5---|-7---7---7-7-7---|-7---7-7---7-5---|
D#|-----------------|-----------------|-----------------|-----------------|

F#|-----------------|-----------------|-----------------|-----------------|
C#|-----------------|-----------------|-----------------|-----------------|
G#|-7---7---7-7-7---|-7---7-7---7-5---|-7---7---7-7-7---|-7---7-7---7-5---|
D#|-----------------|-----------------|-----------------|-----------------|

F#|-----------------|-----------------|-----------------|-----------------|
C#|-----------------|-----------------|-----------------|-----------------|
G#|-7---------------|-------------5---|-7---------------|-----------------|
D#|-----------------|-----------------|-----------------|-----------------|

F#|-----------------|-----------------|-9---9---9---9---|-9---9---9---9---|
C#|-----------------|-----------------|-9---9---9---9---|-9---9---9---9---|
G#|-----------------|-----------------|-7---7---7---7---|-7---7---7---7---|
D#|-----------------|-----------------|-----------------|-----------------|

F#|-7---7-----7-7---|-7---7-7---7-7---|-7---7-----7-7---|-9-----7-----5---|
C#|-7---7-----7-7---|-7---7-7---7-7---|-7---7-----7-7---|-9-----7-----5---|
G#|-5---5-----5-5---|-5---5-5---5-5---|-5---5-----5-5---|-7-----5-----3---|
D#|-----------------|-----------------|-----------------|-----------------|

F#|-4---4-4---4-4---|-4---4-4---4-4---|-4---4---4---4---|-4---4---4---4---|
C#|-4---4-4---4-4---|-4---4-4---4-4---|-4---4---4---4---|-4---4---4---4---|
G#|-2---2-2---2-2---|-2---2-2---2-2---|-2---2---2---2---|-2---2---2---2---|
D#|-----------------|-----------------|-----------------|-----------------|

[Solo]
F#|-9---9---9-9-9---|-9---9-9---9-9---|-9---9---9-9-9---|-9---9-9---9-9---|
C#|-7---7---7-7-7---|-7---7-7---7-7---|-7---7---7-7-7---|-7---7-7---7-7---|
G#|-----------------|-----------------|-----------------|-----------------|
D#|-----------------|-----------------|-----------------|-----------------|

F#|-9---9---9-9-9---|-9---9-9---9-9---|-9------8------9-|---8-----9---10---|
C#|-7---7---7-7-7---|-7---7-7---7-7---|-7------6------7-|---6-----7---8----|
G#|-----------------|-----------------|-----------------|------------------|
D#|-----------------|-----------------|-----------------|------------------|

F#|-11---11---11-11-11---|-11---11-11---11-11---|-11---11---11-11-11---|-11---11-11---11-11---|
C#|-9----9----9--9--9----|-9----9--9----9--9----|-9----9----9--9--9----|-9----9--9----9--9----|
G#|----------------------|----------------------|----------------------|----------------------|
D#|----------------------|----------------------|----------------------|----------------------|

F#|-11---11---11-11-11---|-11---11-11---11-11---|-11------11------11-|---11-----11---11---|
C#|-9----9----9--9--9----|-9----9--9----9--9----|-9-------9-------9--|---9------9----9----|
G#|----------------------|----------------------|--------------------|--------------------|
D#|----------------------|----------------------|--------------------|--------------------|

F#|-9---9---9-9-9---|-9---9-9---9-9---|-9---9---9-9-9---|-9---9-9---9-9---|
C#|-7---7---7-7-7---|-7---7-7---7-7---|-7---7---7-7-7---|-7---7-7---7-7---|
G#|-----------------|-----------------|-----------------|-----------------|
D#|-----------------|-----------------|-----------------|-----------------|

F#|-9---9---9-9-9---|-9---9-9---9-9---|-9------9------9-|---9-----9---9---|
C#|-7---7---7-7-7---|-7---7-7---7-7---|-7------7------7-|---7-----7---7---|
G#|-----------------|-----------------|-----------------|-----------------|
D#|-----------------|-----------------|-----------------|-----------------|

F#|-----------------|-----------------|-----------------|-----------------|
C#|-----------------|-----------------|-----------------|-----------------|
G#|-7---7---7-7-7---|-7---7-7---7-5---|-7---7-7---7-7---|-7---7-7---7-5---|
D#|-----------------|-----------------|-----------------|-----------------|

F#|-----------------|-----------------|-----------------|-----------------|
C#|-----------------|-----------------|-----------------|-----------------|
G#|-7---7-----7-7---|-7---7-7---7-5---|-7---7---7-7-7---|-7---7-7---7-5---|
D#|-----------------|-----------------|-----------------|-----------------|

[Verse]
F#|-7---7-----7-7---|-7---7-7---7-7---|-7---7-----7-7---|-7---7-7---7-7---|
C#|-5---5-----5-5---|-5---5-5---5-5---|-5---5-----5-5---|-5---5-5---5-5---|
G#|-----------------|-----------------|-----------------|-----------------|
D#|-----------------------------------|-----------------|-----------------|

F#|-7---7-----7-7---|-7---7-7---7-7---|-7------7------7-|---7-------7-----|
C#|-5---5-----5-5---|-5---5-5---5-5---|-5------5------5-|---5-------5-----|
G#|-----------------|-----------------|-----------------|-----------------|
D#|-----------------|-----------------|-----------------|-----------------|

[Pre-Chorus]
F#|-----------------|-----------------|-----------------|-----------------|
C#|-----------------|-----------------|-----------------|-----------------|
G#|-7---7---7-7-7---|-7---7-7---7-5---|-7---7---7-7-7---|-7---7-7---7-5---|
D#|-----------------|-----------------|-----------------|-----------------|

F#|-----------------|-----------------|-----------------|-----------------|
C#|-----------------|-----------------|-----------------|-----------------|
G#|-7---7---7-7-7---|-7---7-7---7-5---|-7---7---7-7-7---|-7---7-7---7-5---|
D#|-----------------|-----------------|-----------------|-----------------|

[Chorus]
F#|-7---7-----7-7---|-7---7-7---7-7---|-5---5-----5-5---|-5---5-5---5-5---|
C#|-7---7-----7-7---|-7---7-7---7-7---|-5---5-----5-5---|-5---5-5---5-5---|
G#|-5---5-----5-5---|-5---5-5---5-5---|-3---3-----3-3---|-3---3-3---3-3---|
D#|-----------------|-----------------|-----------------|-----------------|

F#|-----------------|-----------------|-----------------|-----------------|
C#|-----------------|-----------------|-----------------|-----------------|
G#|-7---7---7-7-7---|-7---7-7---7-5---|-7---7---7-7-7---|-7---7-7---7-5---|
D#|-----------------|-----------------|-----------------|-----------------|

F#|-7---7-----7-7---|-7---7-7---7-7---|-5---5-----5-5---|-5---5-5---5-5---|
C#|-7---7-----7-7---|-7---7-7---7-7---|-5---5-----5-5---|-5---5-5---5-5---|
G#|-5---5-----5-5---|-5---5-5---5-5---|-3---3-----3-3---|-3---3-3---3-3---|
D#|-----------------|-----------------|-----------------|-----------------|

F#|-----------------|-----------------|-----------------|-----------------|
C#|-----------------|-----------------|-----------------|-----------------|
G#|-7---7---7-7-7---|-7---7-7---7-5---|-7---7---7-7-7---|-7---7-7---7-5---|
D#|-----------------|-----------------|-----------------|-----------------|

F#|-----------------|-----------------|-----------------|-----------------|
C#|-----------------|-----------------|-----------------|-----------------|
G#|-7---7---7-7-7---|-7---7-7---7-5---|-7---7---7-7-7---|-7---7-7---7-5---|
D#|-----------------|-----------------|-----------------|-----------------|

F#|-----------------|-----------------|-----------------|-----------------|
C#|-----------------|-----------------|-----------------|-----------------|
G#|-7---7---7-7-7---|-7---7-7---7-5---|-7---7---7-7-7---|-7---7-7---7-5---|
D#|-----------------|-----------------|-----------------|-----------------|

[Outro]
F#|-7---7-----------|-----------------|-5---5-----------|-----------------|
C#|-7---7-----------|-----------------|-5---5-----------|-----------------|
G#|-5---5-----------|-----------------|-3---3-----------|-----------------|
D#|-----------------|-----------------|-----------------|-----------------|

F#|-7---7-----------|-----------------|-5---5-----------|-----------------|
C#|-7---7-----------|-----------------|-5---5-----------|-----------------|
G#|-5---5-----------|-----------------|-3---3-----------|-----------------|
D#|-----------------|-----------------|-----------------|-----------------|

F#|-9-------7-----9-|-----------------|-9------7------9-|-----------------|
C#|-9-------7-----9-|-----------------|-9------7------9-|-----------------|
G#|-7-------5-----7-|-----------------|-7------5------7-|-----------------|
D#|-----------------|-----------------|-----------------|-----------------|


************************************

| /   Slide up

************************************
Suggest correction
Creating personal tab
Creating personal tab
You can edit any tab online and save it as your Personal.

You can edit, replace or remove any tab part or add personal notes – all changes will be seen only by you.

Personal tabs can be accessed anytime from any device, even offline.
Learn more »
Give kudos to tab author, rate the tab!
1 2 3 4 5
comments
print report bad tab
guest
You may want to rate the tab now too:
select rating
Wanna post a correction for this tab? Suggest correction