Oops, an error
Loading. Please wait.

De Música Ligera tab

4,884 views 1 this week
no commentswrite comment
1 2 3 4 5
x 4
add to favorites
×
Save as Personal and add changes to this tab that will be seen only by you. Learn more ›
×
You can save this tab as Personal to edit and correct it or add notes. All changes will be seen only by you. Learn more »
launch autoscroll
font size
0
reset
how to read this tab
guitar tuner
backing track
0:00
0:00
edit
Autoscroll
slow
fast
+/-
esc
set tempo
stop
Author
Difficulty
Esto se repite en toda la cancion:

      (BM)       (G)         (D)        (A)
e|-----------------------3---2-2--------------------|
B|-----------------------0---3-3---3-3--3-3---------|
G|-----------------------0---2-2---3-3--3-3---------|
D|----4-4--------------------------3-3--3-3---------|
A|----2-2------2--2-2-------------------------------|
E|-------------3--3-3-------------------------------|

Y Ella durmió al calor de las masas

Yo desperté queriendo soñarla
                  G  D  D                  G  D D
Algún tiempo atrás    pensé en escribirle
                 G  D  D                  G  D A
Que nunca sorteé     Las trampas del amor

Bm          G  D
De aquel amor

A         Bm    G  D  A
De música ligera

Bm           G  D
Nada nos libra

A         Bm   G  D  A
Nada mas queda

Luego el solo mas fácil de la historia

e|------------------------------------------------------------------|
B|------------------------------------------------------------------|
G|------------------------------------------------------------------|
D|------------------------------------------------------------------|
A|--2--2--4--5~------4--5--4--2--------2~------0--2--0--------------|
E|------------------------------5--2~------------------0--2--2--0---|

e|--------------------------------------------------------------------|
B|--------------------------------------------------------------------|
G|--------------------------------------------------------------------|
D|----------------------2--4------------------------------------------|
A|--2--4--5~------4--5--------5--4--2~--------------------------------|
E|--------------------------------------------------------------------|

Esta cancion esta regalada espero que la saquen rapido

Errores, comentarios, quejas, AGRADECIMIENTOS a:                  huevo2012@hotmail.com

            
            
Suggest correction
Creating personal tab
Creating personal tab
You can edit any tab online and save it as your Personal.

You can edit, replace or remove any tab part or add personal notes – all changes will be seen only by you.

Personal tabs can be accessed anytime from any device, even offline.
Learn more »
comments
print report bad tab
guest
You may want to rate the tab now too:
select rating
Wanna post a correction for this tab? Suggest correction