Oops, an error
Loading. Please wait.

Fuer Immer tab

version 1
version 1

Whole song

Interactive

24,629 views 1 this week
2 commentsread comments
1 2 3 4 5
x 6
add to favorites
×
Save as Personal and add changes to this tab that will be seen only by you. Learn more ›
×
You can save this tab as Personal to edit and correct it or add notes. All changes will be seen only by you. Learn more »
launch autoscroll
font size
0
reset
how to read this tab
guitar tuner
edit
Autoscroll
slow
fast
+/-
esc
set tempo
stop
#----------------------------------PLEASE NOTE---------------------------------#
#This file is the author's own work and represents their interpretation of the #
#song. You may only use this file for private study, scholarship, or research. #
#------------------------------------------------------------------------------#
#


From abrun@centralnet.ch Sun Apr 27 11:08:02 1997
Date: Thu, 24 Apr 1997 21:49:34 +0200
From: aDi 
To: guitar@olga.net
Subject: TAB "Fuer immer" by "Boehse Onkelz"

-------------------------------------|PLEASE
NOTE---------------------------------|
This file is the author's own work and represents their interpretation
of the
song. You may only use this file for private study, scholarship, or
research.
-----------------------------------------------------------------------------

-----------------------------------------------------------------------
                      Fuer immer - Boehse Onkelz
			    Weisses Album
-----------------------------------------------------------------------

Rausgetabbt von: the great abrun (aDi) --- abrun@centralnet.ch

Ok... wie immer sind diese Angaben unverbindlich, da ich noch nicht
Meister meines Faches bin. Gott (falls es einen gibt) bezeugt aber,
dass ich mir die groesste Muehe gemacht habe, dieses Lied in einer
vernuenftig klingenden Version zu tabben. Vielleicht kann Gonzo mir
bei der einen oder andern Stelle helfen ... wer weiss ?!?

Na dann los mit einem der schoensten Lieder der Onkelz ...

-----------------------------------------------------------------------


0:00 min

Riff 1: (falls man dies Riff nennen darf)

e|---------------|---------------|---------------|---------------|----|
B|--------0------|--------0------|--------0------|--------0------|----|
G|----0-------0--|----0-------0--|----0-------0--|----0-------0--|-4x-|
D|--2---2---2----|--2---2---2----|--0---0---0----|--0---0---0----|----|
A|---------------|---------------|---------------|---------------|----|
E|---------------|---------------|---------------|---------------|----|

e|---------------|---------------|---------------|---------------|----|
B|--------0------|--------0------|--------0------|--------0------|----|
G|----0-------0--|----0-------0--|----0-------0--|----0-------0--|-2x-|
D|---------------|---------------|--0---0---0----|--0---0---0----|----|
A|--3---3---3----|--3---3---3----|---------------|---------------|----|
E|---------------|---------------|---------------|---------------|----|


0:45 min

Akkordfolge 1:

    Em    Am   		   Em    Am    Asus4
e|------------------|-------------------------------------------------|
B|---------1--------|-------------1------3---------Spielerei mit------|
G|---0-----2----4x--|-------0-----2------2---------diesen Akkorden----|
D|---2-----2--------|-------2-----2------2---------in dieser----------|
A|---2--------------|-------2----------------------Reihenfolge--------|
E|---0--------------|-------0-----------------------------------------|


1:43 min

Riff 1:

e|---------------|---------------|---------------|---------------|----|
B|--------0------|--------0------|--------0------|--------0------|----|
G|----0-------0--|----0-------0--|----0-------0--|----0-------0--|-4x-|
D|--2---2---2----|--2---2---2----|--0---0---0----|--0---0---0----|----|
A|---------------|---------------|---------------|---------------|----|
E|---------------|---------------|---------------|---------------|----|

e|---------------|---------------|---------------|---------------|----|
B|--------0------|--------0------|--------0------|--------0------|----|
G|----0-------0--|----0-------0--|----0-------0--|----0-------0--|-2x-|
D|---------------|---------------|--0---0---0----|--0---0---0----|----|
A|--3---3---3----|--3---3---3----|---------------|---------------|----|
E|---------------|---------------|---------------|---------------|----|

2:25 min

Akkordfolge 1:

    Em    Am   		   Em    Am    Asus4
e|------------------|-------------------------------------------------|
B|---------1--------|-------------1------3---------Spielerei mit------|
G|---0-----2----4x--|-------0-----2------2---------diesen Akkorden----|
D|---2-----2--------|-------2-----2------2---------in dieser----------|
A|---2--------------|-------2----------------------Reihenfolge--------|
E|---0--------------|-------0-----------------------------------------|

3:20 min

Solo (2 Gitarren, 1 Bass)

Eine Gitarre und ein Bass spielen zusammen das Solo, waehrend die
andere Gitarre im Hintergrund leise den Riff 1 spielt.
Am besten klaert ihr unter euch die verschiedenen Spielweisen ab und
probierts so, wie es euch am besten gefaellt.

Solo-Part 1:

e|------------------|------------------|------------------------------|
B|------------------|------------------|------------------------------|
G|------------------|------------------|------------------------------|
D|----------2^4^2---|----------2^4^2---|----------2^4^2^4^2-----------|
A|------------------|------------------|------------------------------|
E|---0--2-3---------|---0--2-3---------|---0--2-3---------------------|

e|------------------|------------------|------------------------------|
B|------------------|------------------|------------------------------|
G|------------------|------------------|------------------------------|
D|----------2^4^2---|----------2^4^2---|----------2^4^2^4^5-----------|
A|------------------|------------------|------------------------------|
E|---0--2-3---------|---0--2-3---------|---0--2-3---------------------|

Solo-Part 2:

e|-----------0------|-----------0------|-----------0------------------|
B|-------0-3---3----|-------0-3---3----|-------0-3---3-----0 ~~ ------|
G|---0-2---------0--|---0-2---------0--|---0-2---------0-2------------|
D|------------------|------------------|------------------------------|
A|------------------|------------------|------------------------------|
E|------------------|------------------|------------------------------|

e|-----------0------|-----------0------|-----------0------------------|
B|-------0-3---3----|-------0-3---3----|-------0-3---3-----0 ~~ ------|
G|---0-2---------0--|---0-2---------0--|---0-2---------0-2------------|
D|------------------|------------------|------------------------------|
A|------------------|------------------|------------------------------|
E|------------------|------------------|------------------------------|

Solo-Part 3:

e|------|--3-2-------3-2---3-2---------|------------------------------|
B|---3--|------3-~-3-----3-----3-~-3---|------------------------------|
G|------|------------------------------|------------------------------|
D|------|------------------------------|------------------------------|
A|------|-------------|6x|-------------|------------------------------|
E|------|------------------------------|------------------------------|

4:05 min

Akkordfolge 2: (Bass spielt Unterton)

   Em   Aadd9

e|--0-----0---|-------------------------------------------------------|
B|--0-----0---|-------------------------------------------------------|
G|--0-----2---|--|4x|-------------------------------------------------|
D|--2-----2---|-------------------------------------------------------|
A|--2-----0---|-------------------------------------------------------|
E|--0-----X---|-------------------------------------------------------|

4:33 min

Akkordfolge 3:

    Em    Am    Asus4
e|--------------------------------------------------------------------|
B|---------1- ----3---------Spielerei mit-----------------------------|
G|---------2------2---------diesen Akkorden---------------------------|
D|---2-----2------2---------in dieser---------------------------------|
A|---2----------------------Reihenfolge-------------------------------|
E|---0----------------------------------------------------------------|


5:05 min

Flagolet-Toene 12.Bund und 7.Bund |4x|


5:28 min

Em

=======================================================================

	- Konstruktive Kritik wird gerne entgegengenommen und  -
        - weiterverarbeitet. Ebenfalls stehe ich fuer ev. Fragen
        - zur Verfuegung.         E-Mail : abrun@centralnet.ch -
----------------------------------PLEASE NOTE--------------------------------
This file is the author's own work and represents their interpretation of the
song. You may only use this file for private study, scholarship, or research.
-----------------------------------------------------------------------------

-----------------------------------------------------------------------
                      Fuer immer - Boehse Onkelz
			    Weisses Album
-----------------------------------------------------------------------

Rausgetabbt von: the great abrun (aDi) --- abrun@centralnet.ch

Ok... wie immer sind diese Angaben unverbindlich, da ich noch nicht
Meister meines Faches bin. Gott (falls es einen gibt) bezeugt aber,
dass ich mir die groesste Muehe gemacht habe, dieses Lied in einer
vernuenftig klingenden Version zu tabben. Vielleicht kann Gonzo mir
bei der einen oder andern Stelle helfen ... wer weiss ?!?

Na dann los mit einem der schoensten Lieder der Onkelz ...

-----------------------------------------------------------------------


0:00 min

Riff 1: (falls man dies Riff nennen darf)

e|---------------|---------------|---------------|---------------|----|
B|--------0------|--------0------|--------0------|--------0------|----|
G|----0-------0--|----0-------0--|----0-------0--|----0-------0--|-4x-|
D|--2---2---2----|--2---2---2----|--0---0---0----|--0---0---0----|----|
A|---------------|---------------|---------------|---------------|----|
E|---------------|---------------|---------------|---------------|----|

e|---------------|---------------|---------------|---------------|----|
B|--------0------|--------0------|--------0------|--------0------|----|
G|----0-------0--|----0-------0--|----0-------0--|----0-------0--|-2x-|
D|---------------|---------------|--0---0---0----|--0---0---0----|----|
A|--3---3---3----|--3---3---3----|---------------|---------------|----|
E|---------------|---------------|---------------|---------------|----|


0:45 min

Akkordfolge 1:

    Em    Am   		   Em    Am    Asus4
e|------------------|-------------------------------------------------|
B|---------1--------|-------------1------3---------Spielerei mit------|
G|---0-----2----4x--|-------0-----2------2---------diesen Akkorden----|
D|---2-----2--------|-------2-----2------2---------in dieser----------|
A|---2--------------|-------2----------------------Reihenfolge--------|
E|---0--------------|-------0-----------------------------------------|


1:43 min

Riff 1:

e|---------------|---------------|---------------|---------------|----|
B|--------0------|--------0------|--------0------|--------0------|----|
G|----0-------0--|----0-------0--|----0-------0--|----0-------0--|-4x-|
D|--2---2---2----|--2---2---2----|--0---0---0----|--0---0---0----|----|
A|---------------|---------------|---------------|---------------|----|
E|---------------|---------------|---------------|---------------|----|

e|---------------|---------------|---------------|---------------|----|
B|--------0------|--------0------|--------0------|--------0------|----|
G|----0-------0--|----0-------0--|----0-------0--|----0-------0--|-2x-|
D|---------------|---------------|--0---0---0----|--0---0---0----|----|
A|--3---3---3----|--3---3---3----|---------------|---------------|----|
E|---------------|---------------|---------------|---------------|----|

2:25 min

Akkordfolge 1:

    Em    Am   		   Em    Am    Asus4
e|------------------|-------------------------------------------------|
B|---------1--------|-------------1------3---------Spielerei mit------|
G|---0-----2----4x--|-------0-----2------2---------diesen Akkorden----|
D|---2-----2--------|-------2-----2------2---------in dieser----------|
A|---2--------------|-------2----------------------Reihenfolge--------|
E|---0--------------|-------0-----------------------------------------|

3:20 min

Solo (2 Gitarren, 1 Bass)

Eine Gitarre und ein Bass spielen zusammen das Solo, waehrend die
andere Gitarre im Hintergrund leise den Riff 1 spielt.
Am besten klaert ihr unter euch die verschiedenen Spielweisen ab und
probierts so, wie es euch am besten gef?llt.

Solo-Part 1:

e|------------------|------------------|------------------------------|
B|------------------|------------------|------------------------------|
G|------------------|------------------|------------------------------|
D|----------2^4^2---|----------2^4^2---|----------2^4^2^4^2-----------|
A|------------------|------------------|------------------------------|
E|---0--2-3---------|---0--2-3---------|---0--2-3---------------------|

e|------------------|------------------|------------------------------|
B|------------------|------------------|------------------------------|
G|------------------|------------------|------------------------------|
D|----------2^4^2---|----------2^4^2---|----------2^4^2^4^5-----------|
A|------------------|------------------|------------------------------|
E|---0--2-3---------|---0--2-3---------|---0--2-3---------------------|

Solo-Part 2:

e|-----------0------|-----------0------|-----------0------------------|
B|-------0-3---3----|-------0-3---3----|-------0-3---3-----0 ~~ ------|
G|---0-2---------0--|---0-2---------0--|---0-2---------0-2------------|
D|------------------|------------------|------------------------------|
A|------------------|------------------|------------------------------|
E|------------------|------------------|------------------------------|

e|-----------0------|-----------0------|-----------0------------------|
B|-------0-3---3----|-------0-3---3----|-------0-3---3-----0 ~~ ------|
G|---0-2---------0--|---0-2---------0--|---0-2---------0-2------------|
D|------------------|------------------|------------------------------|
A|------------------|------------------|------------------------------|
E|------------------|------------------|------------------------------|

Solo-Part 3:

e|------|--3-2-------3-2---3-2---------|------------------------------|
B|---3--|------3-~-3-----3-----3-~-3---|------------------------------|
G|------|------------------------------|------------------------------|
D|------|------------------------------|------------------------------|
A|------|-------------|6x|-------------|------------------------------|
E|------|------------------------------|------------------------------|

4:05 min

Akkordfolge 2: (Bass spielt Unterton)

   Em   Aadd9

e|--0-----0---|-------------------------------------------------------|
B|--0-----0---|-------------------------------------------------------|
G|--0-----2---|--|4x|-------------------------------------------------|
D|--2-----2---|-------------------------------------------------------|
A|--2-----0---|-------------------------------------------------------|
E|--0-----X---|-------------------------------------------------------|

4:33 min

Akkordfolge 3:

    Em    Am    Asus4
e|--------------------------------------------------------------------|
B|---------1- ----3---------Spielerei mit-----------------------------|
G|---------2------2---------diesen Akkorden---------------------------|
D|---2-----2------2---------in dieser---------------------------------|
A|---2----------------------Reihenfolge-------------------------------|
E|---0----------------------------------------------------------------|


5:05 min

Flagolet-Toene 12.Bund und 7.Bund |4x|


5:28 min

Em

=======================================================================

	- Konstruktive Kritik wird gerne entgegengenommen und -
        - weiterverarbeitet. Ebenfalls stehe ich f?r ev. Fragen
        - zur Verf?gung.         E-Mail : abrun@centralnet.ch -
Suggest correction
Creating personal tab
Creating personal tab
You can edit any tab online and save it as your Personal.

You can edit, replace or remove any tab part or add personal notes – all changes will be seen only by you.

Personal tabs can be accessed anytime from any device, even offline.
Learn more »
comments
print report bad tab
2 comments total.
0 reply
Gunny. 31 Jul 21, 2008 12:10 PM

gut gemacht.

0 reply
Hose88 137 Jan 13, 2011 06:24 AM

gut gemacht.. vielen Dank :)
Aber beim nachspielen fand ich klang Riff 1 irgendwie anders..ich hätte den so getabbed:

e|---------------|---------------|---------------|---------------|----|
B|----0---0---0--|----0---0---0--|--------0------|--------0------|----|
G|------0---0----|------0---0----|----2-0---0-2--|----2-0---0-2--|-4x-|
D|--2------------|--2------------|--0------------|--0------------|----|
A|---------------|---------------|---------------|---------------|----|
E|---------------|---------------|---------------|---------------|----|


was meinst du?

Lg Hose88

guest
Wanna post a correction for this tab? Suggest correction