Oops, an error
Loading. Please wait.

Astronomy Tab

version 2
version 2

Whole song

Interactive

1,613 views 6 this week
no commentswrite comment
1 2 3 4 5
worth learning
x 3
add to favorites
launch autoscroll
font size
0
reset
how to read this tab
guitar tuner
Tab Pro tools
  • play this tab
  • loop segment
  • change instrument
  • show fretboard
  • metronome
×
Best way to learn
"Astronomy"
Autoscroll
slow
fast
+/-
esc
set tempo
stop
Contributor
-------------------------------------------------------------------------------
                             Astronomy - Blue Öyster Cult
-------------------------------------------------------------------------------
Tabbed by:Joe
Email:joseph2929@sbcglobal.net

Tuning: Standard

e|-------------------------------------|
B|-------------------------------------|
G|--4-3-2-4-2----4-3-2-4-2-------------| x7
D|------------4------------2-----------|
A|-------------------------------------|
E|-------------------------------------|


e|--------------------|
B|--------------------|
G|--4-3-2-4-2---------|
D|------------2/4-----|   
A|--------------------|
E|--------------------|

 This is a Variation of those first initial 7 
 in which you slide up to the fourth fret. You can play them individually
 I just think the slide sounds better




e|---------------------------------------------|
B|---------------------------------------------|
G|-----7-7pm7-7pm7-5-5-5h7-5-5pm5-5pm5-7-7-----|
D|-----7-7pm7-7pm7-5-5-5h7-5-5pm5-5pm5-7-7-----|
A|---------------------------------------------|
E|---------------------------------------------|
 This is Played through the Chorus and stuff



 Now this part right here is a bit of a breakdown. after the lyrics 
"Or the light that never, never warms, never warms, never warms"
e|---4-3-2-4-2----------------------------------|
B|-------------4--------------------------------|
G|----------------4-3-2-4-2---------------------|
D|--------------------------2-------------------|
A|------------------------------4-3-2-4-2-------|
E|----------------------------------------0r----|


I dont have the solos down but i just improv on them anyways. 
This is a good song once you have this stuff down,
it is just so free ranged you can make it your own.
I hope you guys dont trip too badly...
| r  Let Ring out
| /  slide up
| h  hammer-on
| p  pull-off
| pm  Palm Muted
===============================================================================
comments
We did not receive enough feedback on this tab! Please rate:
print report bad tab
1 2 3 4 5
I want to post or [tab]
guest
You may want to rate the tab now too:
select rating
Please do not post tabs as comments. Select "correction" instead!